ISO-10303-21;
HEADER;
/* Generated by software containing ST-Developer
 * from STEP Tools, Inc. (www.steptools.com) 
 */
/* OPTION: using custom schema-name function */

FILE_DESCRIPTION(
/* description */ (''),
/* implementation_level */ '2;1');

FILE_NAME(
/* name */ 'CCGT060204.stp',
/* time_stamp */ '2024-06-26T08:13:04+09:00',
/* author */ (''),
/* organization */ (''),
/* preprocessor_version */ 'ST-DEVELOPER v16',
/* originating_system */ 'SIEMENS PLM Software NX 10.0',
/* authorisation */ '');

FILE_SCHEMA (('AP203_CONFIGURATION_CONTROLLED_3D_DESIGN_OF_MECHANICAL_PARTS_AND_ASSEMBLIES_MIM_LF { 1 0 10303 403 2 1 2}'));
ENDSEC;

DATA;
#10=PROPERTY_DEFINITION_REPRESENTATION(#14,#12);
#11=PROPERTY_DEFINITION_REPRESENTATION(#15,#13);
#12=REPRESENTATION('',(#16),#489);
#13=REPRESENTATION('',(#17),#489);
#14=PROPERTY_DEFINITION('pmi validation property','',#89);
#15=PROPERTY_DEFINITION('pmi validation property','',#89);
#16=VALUE_REPRESENTATION_ITEM('number of annotations',COUNT_MEASURE(0.));
#17=VALUE_REPRESENTATION_ITEM('number of views',COUNT_MEASURE(0.));
#18=SHAPE_REPRESENTATION_RELATIONSHIP('None',
'relationship between 12012F608941nsh1-None and 12012F608941nsh1-None',
#100,#19);
#19=ADVANCED_BREP_SHAPE_REPRESENTATION('12012F608941nsh1-None',(#101),#489);
#20=CC_DESIGN_APPROVAL(#32,(#90));
#21=CC_DESIGN_APPROVAL(#33,(#92));
#22=CC_DESIGN_APPROVAL(#34,(#39));
#23=APPROVAL_PERSON_ORGANIZATION(#77,#32,#26);
#24=APPROVAL_PERSON_ORGANIZATION(#78,#33,#27);
#25=APPROVAL_PERSON_ORGANIZATION(#79,#34,#28);
#26=APPROVAL_ROLE('approver');
#27=APPROVAL_ROLE('approver');
#28=APPROVAL_ROLE('approver');
#29=APPROVAL_DATE_TIME(#47,#32);
#30=APPROVAL_DATE_TIME(#48,#33);
#31=APPROVAL_DATE_TIME(#49,#34);
#32=APPROVAL(#35,' ');
#33=APPROVAL(#36,' ');
#34=APPROVAL(#37,' ');
#35=APPROVAL_STATUS('not_yet_approved');
#36=APPROVAL_STATUS('not_yet_approved');
#37=APPROVAL_STATUS('not_yet_approved');
#38=CC_DESIGN_SECURITY_CLASSIFICATION(#39,(#92));
#39=SECURITY_CLASSIFICATION(' ',' ',#40);
#40=SECURITY_CLASSIFICATION_LEVEL('confidential');
#41=CC_DESIGN_DATE_AND_TIME_ASSIGNMENT(#45,#43,(#90));
#42=CC_DESIGN_DATE_AND_TIME_ASSIGNMENT(#46,#44,(#39));
#43=DATE_TIME_ROLE('creation_date');
#44=DATE_TIME_ROLE('classification_date');
#45=DATE_AND_TIME(#60,#50);
#46=DATE_AND_TIME(#61,#51);
#47=DATE_AND_TIME(#62,#52);
#48=DATE_AND_TIME(#63,#53);
#49=DATE_AND_TIME(#64,#54);
#50=LOCAL_TIME(0,0,0.,#55);
#51=LOCAL_TIME(0,0,0.,#56);
#52=LOCAL_TIME(0,0,0.,#57);
#53=LOCAL_TIME(0,0,0.,#58);
#54=LOCAL_TIME(0,0,0.,#59);
#55=COORDINATED_UNIVERSAL_TIME_OFFSET(0,0,.BEHIND.);
#56=COORDINATED_UNIVERSAL_TIME_OFFSET(0,0,.BEHIND.);
#57=COORDINATED_UNIVERSAL_TIME_OFFSET(0,0,.BEHIND.);
#58=COORDINATED_UNIVERSAL_TIME_OFFSET(0,0,.BEHIND.);
#59=COORDINATED_UNIVERSAL_TIME_OFFSET(0,0,.BEHIND.);
#60=CALENDAR_DATE(0,1,1);
#61=CALENDAR_DATE(0,1,1);
#62=CALENDAR_DATE(0,1,1);
#63=CALENDAR_DATE(0,1,1);
#64=CALENDAR_DATE(0,1,1);
#65=CC_DESIGN_PERSON_AND_ORGANIZATION_ASSIGNMENT(#73,#69,(#90,#92));
#66=CC_DESIGN_PERSON_AND_ORGANIZATION_ASSIGNMENT(#74,#70,(#94));
#67=CC_DESIGN_PERSON_AND_ORGANIZATION_ASSIGNMENT(#75,#71,(#92));
#68=CC_DESIGN_PERSON_AND_ORGANIZATION_ASSIGNMENT(#76,#72,(#39));
#69=PERSON_AND_ORGANIZATION_ROLE('creator');
#70=PERSON_AND_ORGANIZATION_ROLE('design_owner');
#71=PERSON_AND_ORGANIZATION_ROLE('design_supplier');
#72=PERSON_AND_ORGANIZATION_ROLE('classification_officer');
#73=PERSON_AND_ORGANIZATION(#87,#80);
#74=PERSON_AND_ORGANIZATION(#87,#81);
#75=PERSON_AND_ORGANIZATION(#87,#82);
#76=PERSON_AND_ORGANIZATION(#87,#83);
#77=PERSON_AND_ORGANIZATION(#87,#84);
#78=PERSON_AND_ORGANIZATION(#87,#85);
#79=PERSON_AND_ORGANIZATION(#87,#86);
#80=ORGANIZATION(' ',' ',' ');
#81=ORGANIZATION(' ',' ',' ');
#82=ORGANIZATION(' ',' ',' ');
#83=ORGANIZATION(' ',' ',' ');
#84=ORGANIZATION(' ',' ',' ');
#85=ORGANIZATION(' ',' ',' ');
#86=ORGANIZATION(' ',' ',' ');
#87=PERSON(' ',' ',' ',(' '),$,$);
#88=SHAPE_DEFINITION_REPRESENTATION(#89,#100);
#89=PRODUCT_DEFINITION_SHAPE('','',#90);
#90=PRODUCT_DEFINITION(' ','',#92,#91);
#91=DESIGN_CONTEXT('',#99,'design');
#92=PRODUCT_DEFINITION_FORMATION_WITH_SPECIFIED_SOURCE(' ',' ',#94,
 .NOT_KNOWN.);
#93=PRODUCT_RELATED_PRODUCT_CATEGORY('detail','',(#94));
#94=PRODUCT('12012F608941nsh1','12012F608941nsh1',' ',(#97));
#95=PRODUCT_CATEGORY('part',' ');
#96=PRODUCT_CATEGORY(' ','');
#97=MECHANICAL_CONTEXT(' ',#99,'mechanical');
#98=APPLICATION_PROTOCOL_DEFINITION('international standard',
'config_control_design',2010,#99);
#99=APPLICATION_CONTEXT(
'configuration controlled 3D designs of mechanical parts and assemblie
s');
#100=SHAPE_REPRESENTATION('12012F608941nsh1-None',(#324),#489);
#101=MANIFOLD_SOLID_BREP('',#102);
#102=CLOSED_SHELL('',(#124,#125,#126,#127,#128,#129,#130,#131,#132,#133,
#134,#135,#136,#137));
#103=TOROIDAL_SURFACE('',#348,2.16775508146133,0.76775508146133);
#104=TOROIDAL_SURFACE('',#350,1.78939522295954,0.2);
#105=CYLINDRICAL_SURFACE('',#346,1.4);
#106=FACE_BOUND('',#159,.T.);
#107=FACE_BOUND('',#160,.T.);
#108=FACE_BOUND('',#161,.T.);
#109=FACE_BOUND('',#162,.T.);
#110=FACE_BOUND('',#163,.T.);
#111=FACE_BOUND('',#164,.T.);
#112=FACE_BOUND('',#165,.T.);
#113=FACE_BOUND('',#166,.T.);
#114=FACE_BOUND('',#167,.T.);
#115=FACE_BOUND('',#168,.T.);
#116=FACE_BOUND('',#169,.T.);
#117=FACE_BOUND('',#170,.T.);
#118=PLANE('',#328);
#119=PLANE('',#332);
#120=PLANE('',#336);
#121=PLANE('',#340);
#122=PLANE('',#342);
#123=PLANE('',#344);
#124=ADVANCED_FACE('',(#143),#138,.T.);
#125=ADVANCED_FACE('',(#144),#118,.T.);
#126=ADVANCED_FACE('',(#145),#139,.T.);
#127=ADVANCED_FACE('',(#146),#119,.T.);
#128=ADVANCED_FACE('',(#147),#140,.T.);
#129=ADVANCED_FACE('',(#148),#120,.T.);
#130=ADVANCED_FACE('',(#149),#141,.T.);
#131=ADVANCED_FACE('',(#150),#121,.T.);
#132=ADVANCED_FACE('',(#106,#107),#122,.F.);
#133=ADVANCED_FACE('',(#108,#109),#123,.T.);
#134=ADVANCED_FACE('',(#110,#111),#105,.F.);
#135=ADVANCED_FACE('',(#112,#113),#103,.T.);
#136=ADVANCED_FACE('',(#114,#115),#104,.F.);
#137=ADVANCED_FACE('',(#116,#117),#142,.F.);
#138=CONICAL_SURFACE('',#327,0.399999999999999,6.99999999999999);
#139=CONICAL_SURFACE('',#331,0.4,6.99999999999999);
#140=CONICAL_SURFACE('',#335,0.4,6.99999999999999);
#141=CONICAL_SURFACE('',#339,0.4,6.99999999999999);
#142=CONICAL_SURFACE('',#351,1.98863416257789,5.);
#143=FACE_OUTER_BOUND('',#151,.T.);
#144=FACE_OUTER_BOUND('',#152,.T.);
#145=FACE_OUTER_BOUND('',#153,.T.);
#146=FACE_OUTER_BOUND('',#154,.T.);
#147=FACE_OUTER_BOUND('',#155,.T.);
#148=FACE_OUTER_BOUND('',#156,.T.);
#149=FACE_OUTER_BOUND('',#157,.T.);
#150=FACE_OUTER_BOUND('',#158,.T.);
#151=EDGE_LOOP('',(#203,#204,#205,#206));
#152=EDGE_LOOP('',(#207,#208,#209,#210));
#153=EDGE_LOOP('',(#211,#212,#213,#214));
#154=EDGE_LOOP('',(#215,#216,#217,#218));
#155=EDGE_LOOP('',(#219,#220,#221,#222));
#156=EDGE_LOOP('',(#223,#224,#225,#226));
#157=EDGE_LOOP('',(#227,#228,#229,#230));
#158=EDGE_LOOP('',(#231,#232,#233,#234));
#159=EDGE_LOOP('',(#235));
#160=EDGE_LOOP('',(#236,#237,#238,#239,#240,#241,#242,#243));
#161=EDGE_LOOP('',(#244));
#162=EDGE_LOOP('',(#245,#246,#247,#248,#249,#250,#251,#252));
#163=EDGE_LOOP('',(#253));
#164=EDGE_LOOP('',(#254));
#165=EDGE_LOOP('',(#255));
#166=EDGE_LOOP('',(#256));
#167=EDGE_LOOP('',(#257));
#168=EDGE_LOOP('',(#258));
#169=EDGE_LOOP('',(#259));
#170=EDGE_LOOP('',(#260));
#171=LINE('',#428,#187);
#172=LINE('',#432,#188);
#173=LINE('',#434,#189);
#174=LINE('',#436,#190);
#175=LINE('',#438,#191);
#176=LINE('',#444,#192);
#177=LINE('',#446,#193);
#178=LINE('',#448,#194);
#179=LINE('',#450,#195);
#180=LINE('',#456,#196);
#181=LINE('',#458,#197);
#182=LINE('',#460,#198);
#183=LINE('',#462,#199);
#184=LINE('',#468,#200);
#185=LINE('',#470,#201);
#186=LINE('',#471,#202);
#187=VECTOR('',#356,1.);
#188=VECTOR('',#359,1.);
#189=VECTOR('',#362,1.);
#190=VECTOR('',#363,1.);
#191=VECTOR('',#364,1.);
#192=VECTOR('',#371,1.);
#193=VECTOR('',#374,1.);
#194=VECTOR('',#375,1.);
#195=VECTOR('',#376,1.);
#196=VECTOR('',#383,1.);
#197=VECTOR('',#386,1.);
#198=VECTOR('',#387,1.);
#199=VECTOR('',#388,1.);
#200=VECTOR('',#395,1.);
#201=VECTOR('',#398,1.);
#202=VECTOR('',#399,1.);
#203=ORIENTED_EDGE('',*,*,#282,.F.);
#204=ORIENTED_EDGE('',*,*,#283,.F.);
#205=ORIENTED_EDGE('',*,*,#284,.T.);
#206=ORIENTED_EDGE('',*,*,#285,.T.);
#207=ORIENTED_EDGE('',*,*,#286,.F.);
#208=ORIENTED_EDGE('',*,*,#285,.F.);
#209=ORIENTED_EDGE('',*,*,#287,.T.);
#210=ORIENTED_EDGE('',*,*,#288,.T.);
#211=ORIENTED_EDGE('',*,*,#289,.F.);
#212=ORIENTED_EDGE('',*,*,#288,.F.);
#213=ORIENTED_EDGE('',*,*,#290,.T.);
#214=ORIENTED_EDGE('',*,*,#291,.T.);
#215=ORIENTED_EDGE('',*,*,#292,.F.);
#216=ORIENTED_EDGE('',*,*,#291,.F.);
#217=ORIENTED_EDGE('',*,*,#293,.T.);
#218=ORIENTED_EDGE('',*,*,#294,.T.);
#219=ORIENTED_EDGE('',*,*,#295,.F.);
#220=ORIENTED_EDGE('',*,*,#294,.F.);
#221=ORIENTED_EDGE('',*,*,#296,.T.);
#222=ORIENTED_EDGE('',*,*,#297,.T.);
#223=ORIENTED_EDGE('',*,*,#298,.F.);
#224=ORIENTED_EDGE('',*,*,#297,.F.);
#225=ORIENTED_EDGE('',*,*,#299,.T.);
#226=ORIENTED_EDGE('',*,*,#300,.T.);
#227=ORIENTED_EDGE('',*,*,#301,.F.);
#228=ORIENTED_EDGE('',*,*,#300,.F.);
#229=ORIENTED_EDGE('',*,*,#302,.T.);
#230=ORIENTED_EDGE('',*,*,#303,.T.);
#231=ORIENTED_EDGE('',*,*,#304,.F.);
#232=ORIENTED_EDGE('',*,*,#303,.F.);
#233=ORIENTED_EDGE('',*,*,#305,.T.);
#234=ORIENTED_EDGE('',*,*,#283,.T.);
#235=ORIENTED_EDGE('',*,*,#306,.T.);
#236=ORIENTED_EDGE('',*,*,#284,.F.);
#237=ORIENTED_EDGE('',*,*,#305,.F.);
#238=ORIENTED_EDGE('',*,*,#302,.F.);
#239=ORIENTED_EDGE('',*,*,#299,.F.);
#240=ORIENTED_EDGE('',*,*,#296,.F.);
#241=ORIENTED_EDGE('',*,*,#293,.F.);
#242=ORIENTED_EDGE('',*,*,#290,.F.);
#243=ORIENTED_EDGE('',*,*,#287,.F.);
#244=ORIENTED_EDGE('',*,*,#307,.F.);
#245=ORIENTED_EDGE('',*,*,#282,.T.);
#246=ORIENTED_EDGE('',*,*,#286,.T.);
#247=ORIENTED_EDGE('',*,*,#289,.T.);
#248=ORIENTED_EDGE('',*,*,#292,.T.);
#249=ORIENTED_EDGE('',*,*,#295,.T.);
#250=ORIENTED_EDGE('',*,*,#298,.T.);
#251=ORIENTED_EDGE('',*,*,#301,.T.);
#252=ORIENTED_EDGE('',*,*,#304,.T.);
#253=ORIENTED_EDGE('',*,*,#308,.T.);
#254=ORIENTED_EDGE('',*,*,#306,.F.);
#255=ORIENTED_EDGE('',*,*,#309,.T.);
#256=ORIENTED_EDGE('',*,*,#308,.F.);
#257=ORIENTED_EDGE('',*,*,#310,.T.);
#258=ORIENTED_EDGE('',*,*,#309,.F.);
#259=ORIENTED_EDGE('',*,*,#307,.T.);
#260=ORIENTED_EDGE('',*,*,#310,.F.);
#261=VERTEX_POINT('',#426);
#262=VERTEX_POINT('',#427);
#263=VERTEX_POINT('',#429);
#264=VERTEX_POINT('',#431);
#265=VERTEX_POINT('',#435);
#266=VERTEX_POINT('',#437);
#267=VERTEX_POINT('',#441);
#268=VERTEX_POINT('',#443);
#269=VERTEX_POINT('',#447);
#270=VERTEX_POINT('',#449);
#271=VERTEX_POINT('',#453);
#272=VERTEX_POINT('',#455);
#273=VERTEX_POINT('',#459);
#274=VERTEX_POINT('',#461);
#275=VERTEX_POINT('',#465);
#276=VERTEX_POINT('',#467);
#277=VERTEX_POINT('',#474);
#278=VERTEX_POINT('',#477);
#279=VERTEX_POINT('',#480);
#280=VERTEX_POINT('',#483);
#281=VERTEX_POINT('',#486);
#282=EDGE_CURVE('',#261,#262,#311,.T.);
#283=EDGE_CURVE('',#263,#261,#171,.T.);
#284=EDGE_CURVE('',#263,#264,#312,.T.);
#285=EDGE_CURVE('',#264,#262,#172,.T.);
#286=EDGE_CURVE('',#262,#265,#173,.T.);
#287=EDGE_CURVE('',#264,#266,#174,.T.);
#288=EDGE_CURVE('',#266,#265,#175,.T.);
#289=EDGE_CURVE('',#265,#267,#313,.T.);
#290=EDGE_CURVE('',#266,#268,#314,.T.);
#291=EDGE_CURVE('',#268,#267,#176,.T.);
#292=EDGE_CURVE('',#267,#269,#177,.T.);
#293=EDGE_CURVE('',#268,#270,#178,.T.);
#294=EDGE_CURVE('',#270,#269,#179,.T.);
#295=EDGE_CURVE('',#269,#271,#315,.T.);
#296=EDGE_CURVE('',#270,#272,#316,.T.);
#297=EDGE_CURVE('',#272,#271,#180,.T.);
#298=EDGE_CURVE('',#271,#273,#181,.T.);
#299=EDGE_CURVE('',#272,#274,#182,.T.);
#300=EDGE_CURVE('',#274,#273,#183,.T.);
#301=EDGE_CURVE('',#273,#275,#317,.T.);
#302=EDGE_CURVE('',#274,#276,#318,.T.);
#303=EDGE_CURVE('',#276,#275,#184,.T.);
#304=EDGE_CURVE('',#275,#261,#185,.T.);
#305=EDGE_CURVE('',#276,#263,#186,.T.);
#306=EDGE_CURVE('',#277,#277,#319,.T.);
#307=EDGE_CURVE('',#278,#278,#320,.T.);
#308=EDGE_CURVE('',#279,#279,#321,.T.);
#309=EDGE_CURVE('',#280,#280,#322,.T.);
#310=EDGE_CURVE('',#281,#281,#323,.T.);
#311=CIRCLE('',#325,0.399999999999999);
#312=CIRCLE('',#326,0.107772745051087);
#313=CIRCLE('',#329,0.4);
#314=CIRCLE('',#330,0.107772745051087);
#315=CIRCLE('',#333,0.4);
#316=CIRCLE('',#334,0.107772745051087);
#317=CIRCLE('',#337,0.4);
#318=CIRCLE('',#338,0.107772745051087);
#319=CIRCLE('',#341,1.4);
#320=CIRCLE('',#343,2.03219414496284);
#321=CIRCLE('',#345,1.4);
#322=CIRCLE('',#347,1.86758853152486);
#323=CIRCLE('',#349,1.98863416257789);
#324=AXIS2_PLACEMENT_3D('',#424,#352,#353);
#325=AXIS2_PLACEMENT_3D('',#425,#354,#355);
#326=AXIS2_PLACEMENT_3D('',#430,#357,#358);
#327=AXIS2_PLACEMENT_3D('',#433,#360,#361);
#328=AXIS2_PLACEMENT_3D('',#439,#365,#366);
#329=AXIS2_PLACEMENT_3D('',#440,#367,#368);
#330=AXIS2_PLACEMENT_3D('',#442,#369,#370);
#331=AXIS2_PLACEMENT_3D('',#445,#372,#373);
#332=AXIS2_PLACEMENT_3D('',#451,#377,#378);
#333=AXIS2_PLACEMENT_3D('',#452,#379,#380);
#334=AXIS2_PLACEMENT_3D('',#454,#381,#382);
#335=AXIS2_PLACEMENT_3D('',#457,#384,#385);
#336=AXIS2_PLACEMENT_3D('',#463,#389,#390);
#337=AXIS2_PLACEMENT_3D('',#464,#391,#392);
#338=AXIS2_PLACEMENT_3D('',#466,#393,#394);
#339=AXIS2_PLACEMENT_3D('',#469,#396,#397);
#340=AXIS2_PLACEMENT_3D('',#472,#400,#401);
#341=AXIS2_PLACEMENT_3D('',#473,#402,#403);
#342=AXIS2_PLACEMENT_3D('',#475,#404,#405);
#343=AXIS2_PLACEMENT_3D('',#476,#406,#407);
#344=AXIS2_PLACEMENT_3D('',#478,#408,#409);
#345=AXIS2_PLACEMENT_3D('',#479,#410,#411);
#346=AXIS2_PLACEMENT_3D('',#481,#412,#413);
#347=AXIS2_PLACEMENT_3D('',#482,#414,#415);
#348=AXIS2_PLACEMENT_3D('',#484,#416,#417);
#349=AXIS2_PLACEMENT_3D('',#485,#418,#419);
#350=AXIS2_PLACEMENT_3D('',#487,#420,#421);
#351=AXIS2_PLACEMENT_3D('',#488,#422,#423);
#352=DIRECTION('',(0.,0.,1.));
#353=DIRECTION('',(1.,0.,0.));
#354=DIRECTION('',(0.,0.,1.));
#355=DIRECTION('',(1.,0.,0.));
#356=DIRECTION('',(-0.120017874239896,0.0211623893957691,0.992546151641322));
#357=DIRECTION('',(0.,0.,1.));
#358=DIRECTION('',(0.999999999999998,0.,0.));
#359=DIRECTION('',(0.,-0.121869343405147,0.992546151641322));
#360=DIRECTION('',(0.,0.,1.));
#361=DIRECTION('',(1.,0.,0.));
#362=DIRECTION('',(1.,0.,0.));
#363=DIRECTION('',(1.,0.,0.));
#364=DIRECTION('',(0.,-0.121869343405147,0.992546151641322));
#365=DIRECTION('',(0.,-0.992546151641322,-0.121869343405147));
#366=DIRECTION('',(0.,0.121869343405147,-0.992546151641322));
#367=DIRECTION('',(0.,0.,1.));
#368=DIRECTION('',(1.,0.,0.));
#369=DIRECTION('',(0.,0.,1.));
#370=DIRECTION('',(0.999999999999999,0.,0.));
#371=DIRECTION('',(0.120017874239896,-0.0211623893957693,0.992546151641322));
#372=DIRECTION('',(0.,0.,1.));
#373=DIRECTION('',(1.,0.,0.));
#374=DIRECTION('',(0.17364817766693,0.984807753012208,0.));
#375=DIRECTION('',(0.17364817766693,0.984807753012208,0.));
#376=DIRECTION('',(0.120017874239896,-0.0211623893957691,0.992546151641322));
#377=DIRECTION('',(0.977467145358805,-0.17235383048284,-0.121869343405147));
#378=DIRECTION('',(0.17364817766693,0.984807753012208,0.));
#379=DIRECTION('',(0.,0.,1.));
#380=DIRECTION('',(1.,0.,0.));
#381=DIRECTION('',(0.,0.,1.));
#382=DIRECTION('',(0.999999999999999,0.,0.));
#383=DIRECTION('',(0.,0.121869343405147,0.992546151641322));
#384=DIRECTION('',(0.,0.,1.));
#385=DIRECTION('',(1.,0.,0.));
#386=DIRECTION('',(-1.,-7.69535643456868E-17,0.));
#387=DIRECTION('',(-1.,-7.69535643456868E-17,0.));
#388=DIRECTION('',(-9.37828035949461E-18,0.121869343405147,0.992546151641322));
#389=DIRECTION('',(-7.63799641463943E-17,0.992546151641322,-0.121869343405147));
#390=DIRECTION('',(0.,0.121869343405147,0.992546151641322));
#391=DIRECTION('',(0.,0.,1.));
#392=DIRECTION('',(1.,0.,0.));
#393=DIRECTION('',(0.,0.,1.));
#394=DIRECTION('',(0.999999999999999,0.,0.));
#395=DIRECTION('',(-0.120017874239896,0.0211623893957691,0.992546151641322));
#396=DIRECTION('',(0.,0.,1.));
#397=DIRECTION('',(1.,0.,0.));
#398=DIRECTION('',(-0.17364817766693,-0.984807753012208,0.));
#399=DIRECTION('',(-0.17364817766693,-0.984807753012208,0.));
#400=DIRECTION('',(-0.977467145358805,0.17235383048284,-0.121869343405147));
#401=DIRECTION('',(-0.17364817766693,-0.984807753012208,0.));
#402=DIRECTION('',(0.,0.,1.));
#403=DIRECTION('',(1.,0.,0.));
#404=DIRECTION('',(0.,0.,1.));
#405=DIRECTION('',(1.,0.,0.));
#406=DIRECTION('',(0.,0.,1.));
#407=DIRECTION('',(1.,0.,0.));
#408=DIRECTION('',(0.,0.,1.));
#409=DIRECTION('',(1.,0.,0.));
#410=DIRECTION('',(0.,0.,1.));
#411=DIRECTION('',(-1.,0.,0.));
#412=DIRECTION('',(0.,0.,-1.));
#413=DIRECTION('',(-1.,0.,0.));
#414=DIRECTION('',(0.,0.,1.));
#415=DIRECTION('',(-1.,0.,0.));
#416=DIRECTION('',(0.,0.,-1.));
#417=DIRECTION('',(-1.,0.,0.));
#418=DIRECTION('',(0.,0.,1.));
#419=DIRECTION('',(-1.,0.,0.));
#420=DIRECTION('',(0.,0.,-1.));
#421=DIRECTION('',(-1.,0.,0.));
#422=DIRECTION('',(0.,0.,1.));
#423=DIRECTION('',(1.,0.,4.60448444675631E-17));
#424=CARTESIAN_POINT('',(0.,0.,0.));
#425=CARTESIAN_POINT('',(-3.30711621944893,-2.775,0.));
#426=CARTESIAN_POINT('',(-3.70103932065381,-2.70554072893323,0.));
#427=CARTESIAN_POINT('',(-3.30711621944893,-3.175,0.));
#428=CARTESIAN_POINT('',(-3.70103932065381,-2.70554072893323,0.));
#429=CARTESIAN_POINT('',(-3.41325165433865,-2.75628545921972,-2.38));
#430=CARTESIAN_POINT('',(-3.30711621944893,-2.775,-2.38));
#431=CARTESIAN_POINT('',(-3.30711621944893,-2.88277274505109,-2.38));
#432=CARTESIAN_POINT('',(-3.30711621944893,-3.175,-1.96719183585728E-17));
#433=CARTESIAN_POINT('',(-3.30711621944893,-2.775,0.));
#434=CARTESIAN_POINT('',(-3.30711621944893,-3.175,0.));
#435=CARTESIAN_POINT('',(2.32850147651696,-3.175,0.));
#436=CARTESIAN_POINT('',(-3.30711621944893,-2.88277274505109,-2.38));
#437=CARTESIAN_POINT('',(2.32850147651696,-2.88277274505109,-2.38));
#438=CARTESIAN_POINT('',(2.32850147651696,-3.175,0.));
#439=CARTESIAN_POINT('',(-3.70103932065381,-3.175,0.));
#440=CARTESIAN_POINT('',(2.32850147651695,-2.775,0.));
#441=CARTESIAN_POINT('',(2.72242457772184,-2.84445927106677,0.));
#442=CARTESIAN_POINT('',(2.32850147651695,-2.775,-2.38));
#443=CARTESIAN_POINT('',(2.43463691140667,-2.79371454078028,-2.38));
#444=CARTESIAN_POINT('',(2.72242457772184,-2.84445927106677,-6.55730611952427E-18));
#445=CARTESIAN_POINT('',(2.32850147651695,-2.775,0.));
#446=CARTESIAN_POINT('',(2.55248991097371,-3.80820665711823,0.));
#447=CARTESIAN_POINT('',(3.70103932065381,2.70554072893323,0.));
#448=CARTESIAN_POINT('',(2.26470224465854,-3.75746192683174,-2.38));
#449=CARTESIAN_POINT('',(3.41325165433865,2.75628545921972,-2.38));
#450=CARTESIAN_POINT('',(3.70103932065381,2.70554072893323,7.72318459175454E-17));
#451=CARTESIAN_POINT('',(2.55248991097371,-3.80820665711823,0.));
#452=CARTESIAN_POINT('',(3.30711621944893,2.775,0.));
#453=CARTESIAN_POINT('',(3.30711621944893,3.175,0.));
#454=CARTESIAN_POINT('',(3.30711621944893,2.775,-2.38));
#455=CARTESIAN_POINT('',(3.30711621944893,2.88277274505109,-2.38));
#456=CARTESIAN_POINT('',(3.30711621944893,3.175,-1.96719183585728E-17));
#457=CARTESIAN_POINT('',(3.30711621944893,2.775,0.));
#458=CARTESIAN_POINT('',(-3.30711621944893,3.175,0.));
#459=CARTESIAN_POINT('',(-2.32850147651695,3.175,0.));
#460=CARTESIAN_POINT('',(-3.30711621944893,2.88277274505109,-2.38));
#461=CARTESIAN_POINT('',(-2.32850147651695,2.88277274505109,-2.38));
#462=CARTESIAN_POINT('',(-2.32850147651695,3.175,2.63168843812282E-17));
#463=CARTESIAN_POINT('',(-3.70103932065381,3.175,0.));
#464=CARTESIAN_POINT('',(-2.32850147651695,2.775,0.));
#465=CARTESIAN_POINT('',(-2.72242457772184,2.84445927106677,0.));
#466=CARTESIAN_POINT('',(-2.32850147651695,2.775,-2.38));
#467=CARTESIAN_POINT('',(-2.43463691140667,2.79371454078028,-2.38));
#468=CARTESIAN_POINT('',(-2.72242457772184,2.84445927106677,-1.96719183585728E-17));
#469=CARTESIAN_POINT('',(-2.32850147651695,2.775,0.));
#470=CARTESIAN_POINT('',(-3.70103932065381,-2.70554072893323,0.));
#471=CARTESIAN_POINT('',(-3.41325165433865,-2.75628545921972,-2.38));
#472=CARTESIAN_POINT('',(-3.70103932065381,-2.70554072893323,0.));
#473=CARTESIAN_POINT('',(0.,0.,-2.38));
#474=CARTESIAN_POINT('',(1.4,0.,-2.38));
#475=CARTESIAN_POINT('',(-3.30711621944893,-2.775,-2.38));
#476=CARTESIAN_POINT('',(0.,0.,0.));
#477=CARTESIAN_POINT('',(2.03219414496284,0.,0.));
#478=CARTESIAN_POINT('',(-3.30711621944893,-2.775,0.));
#479=CARTESIAN_POINT('',(0.,0.,-1.3711882381663));
#480=CARTESIAN_POINT('',(-1.4,0.,-1.3711882381663));
#481=CARTESIAN_POINT('',(0.,0.,0.));
#482=CARTESIAN_POINT('',(0.,0.,-0.664542706510624));
#483=CARTESIAN_POINT('',(-1.86758853152486,0.,-0.664542706510624));
#484=CARTESIAN_POINT('',(0.,0.,-1.3711882381663));
#485=CARTESIAN_POINT('',(0.,0.,-0.497892876967336));
#486=CARTESIAN_POINT('',(-1.98863416257789,0.,-0.497892876967336));
#487=CARTESIAN_POINT('',(0.,0.,-0.480461728417804));
#488=CARTESIAN_POINT('',(0.,0.,-0.497892876967336));
#489=(
GEOMETRIC_REPRESENTATION_CONTEXT(3)
GLOBAL_UNCERTAINTY_ASSIGNED_CONTEXT((#490))
GLOBAL_UNIT_ASSIGNED_CONTEXT((#496,#492,#491))
REPRESENTATION_CONTEXT('CCGT060204','TOP_LEVEL_ASSEMBLY_PART')
);
#490=UNCERTAINTY_MEASURE_WITH_UNIT(LENGTH_MEASURE(2.E-5),#496,
'DISTANCE_ACCURACY_VALUE','Maximum Tolerance applied to model');
#491=(
NAMED_UNIT(*)
SI_UNIT($,.STERADIAN.)
SOLID_ANGLE_UNIT()
);
#492=(
CONVERSION_BASED_UNIT('DEGREE',#494)
NAMED_UNIT(#493)
PLANE_ANGLE_UNIT()
);
#493=DIMENSIONAL_EXPONENTS(0.,0.,0.,0.,0.,0.,0.);
#494=PLANE_ANGLE_MEASURE_WITH_UNIT(PLANE_ANGLE_MEASURE(0.0174532925),#495);
#495=(
NAMED_UNIT(*)
PLANE_ANGLE_UNIT()
SI_UNIT($,.RADIAN.)
);
#496=(
LENGTH_UNIT()
NAMED_UNIT(*)
SI_UNIT(.MILLI.,.METRE.)
);
ENDSEC;
END-ISO-10303-21;
