ISO-10303-21;
HEADER;
FILE_DESCRIPTION (( 'STEP AP214' ),
    '1' );
FILE_NAME ('03-0260.STEP',
    '2020-07-23T06:02:12',
    ( '' ),
    ( '' ),
    'SwSTEP 2.0',
    'SolidWorks 2014',
    '' );
FILE_SCHEMA (( 'AUTOMOTIVE_DESIGN' ));
ENDSEC;

DATA;
#1 = DIRECTION ( 'NONE',  ( 0.0000000000000000000, 1.000000000000000000, 4.263351284055108200E-021 ) ) ;
#2 = PRESENTATION_STYLE_ASSIGNMENT (( #163 ) ) ;
#3 = ADVANCED_BREP_SHAPE_REPRESENTATION ( '03-0260', ( #190, #153 ), #123 ) ;
#4 = DIRECTION ( 'NONE',  ( -0.0000000000000000000, -4.263351284058804300E-021, 1.000000000000000000 ) ) ;
#5 = ORIENTED_EDGE ( 'NONE', *, *, #139, .F. ) ;
#6 = DIRECTION ( 'NONE',  ( 0.0000000000000000000, 4.263351284058803600E-021, -1.000000000000000000 ) ) ;
#7 = DIRECTION ( 'NONE',  ( -0.0000000000000000000, -4.263351284058804300E-021, 1.000000000000000000 ) ) ;
#8 = ORIENTED_EDGE ( 'NONE', *, *, #137, .T. ) ;
#9 = DIRECTION ( 'NONE',  ( 0.0000000000000000000, -1.000000000000000000, -4.263351284058804300E-021 ) ) ;
#10 = CIRCLE ( 'NONE', #54, 3.073400000000012800 ) ;
#11 = DIRECTION ( 'NONE',  ( -0.0000000000000000000, -4.263351284058804300E-021, 1.000000000000000000 ) ) ;
#12 =( GEOMETRIC_REPRESENTATION_CONTEXT ( 3 ) GLOBAL_UNCERTAINTY_ASSIGNED_CONTEXT ( ( #91 ) ) GLOBAL_UNIT_ASSIGNED_CONTEXT ( ( #84, #86, #112 ) ) REPRESENTATION_CONTEXT ( 'NONE', 'WORKASPACE' ) );
#13 = COLOUR_RGB ( '',0.7921568627450980000, 0.8196078431372548800, 0.9333333333333333500 ) ;
#14 = CARTESIAN_POINT ( 'NONE',  ( 0.0000000000000000000, -8.022984294164684000E-037, 1.881849221330555400E-016 ) ) ;
#15 = CARTESIAN_POINT ( 'NONE',  ( 0.0000000000000000000, 4.385839240729778000E-019, -102.8730439625974800 ) ) ;
#16 = PLANE ( 'NONE',  #199 ) ;
#17 = SURFACE_SIDE_STYLE ('',( #156 ) ) ;
#18 = APPLICATION_PROTOCOL_DEFINITION ( 'draft international standard', 'automotive_design', 1998, #97 ) ;
#19 = VERTEX_POINT ( 'NONE', #136 ) ;
#20 = CYLINDRICAL_SURFACE ( 'NONE', #159, 3.073400000000006600 ) ;
#21 = ORIENTED_EDGE ( 'NONE', *, *, #89, .T. ) ;
#22 = ORIENTED_EDGE ( 'NONE', *, *, #89, .F. ) ;
#23 = CONICAL_SURFACE ( 'NONE', #83, 2.458719999999997400, 0.7853981633974399500 ) ;
#24 = ORIENTED_EDGE ( 'NONE', *, *, #126, .F. ) ;
#25 = AXIS2_PLACEMENT_3D ( 'NONE', #32, #157, #78 ) ;
#26 = CONICAL_SURFACE ( 'NONE', #95, 2.458719999999997400, 0.7853981633974399500 ) ;
#27 = ORIENTED_EDGE ( 'NONE', *, *, #146, .T. ) ;
#28 = AXIS2_PLACEMENT_3D ( 'NONE', #106, #47, #192 ) ;
#29 = VECTOR ( 'NONE', #4, 1000.000000000000000 ) ;
#30 = DIRECTION ( 'NONE',  ( 0.0000000000000000000, -1.000000000000000000, 0.0000000000000000000 ) ) ;
#31 = ORIENTED_EDGE ( 'NONE', *, *, #74, .F. ) ;
#32 = CARTESIAN_POINT ( 'NONE',  ( 0.0000000000000000000, 2.620596767285349300E-021, -0.6146800000000195400 ) ) ;
#33 = DIRECTION ( 'NONE',  ( -0.0000000000000000000, -4.263351284058804300E-021, 1.000000000000000000 ) ) ;
#34 =( NAMED_UNIT ( * ) SI_UNIT ( $, .STERADIAN. ) SOLID_ANGLE_UNIT ( ) );
#35 = ORIENTED_EDGE ( 'NONE', *, *, #186, .T. ) ;
#36 = CARTESIAN_POINT ( 'NONE',  ( 0.0000000000000000000, 4.331564904603744900E-019, -101.5999999999999900 ) ) ;
#37 = APPLICATION_CONTEXT ( 'automotive_design' ) ;
#38 = LINE ( 'NONE', #62, #29 ) ;
#39 = EDGE_LOOP ( 'NONE', ( #24, #103, #113, #63 ) ) ;
#40 = CARTESIAN_POINT ( 'NONE',  ( 0.0000000000000000000, -8.022984294164684000E-037, 1.881849221330555400E-016 ) ) ;
#41 = AXIS2_PLACEMENT_3D ( 'NONE', #56, #6, #198 ) ;
#42 = CIRCLE ( 'NONE', #25, 3.073400000000006600 ) ;
#43 = CYLINDRICAL_SURFACE ( 'NONE', #102, 3.073400000000006600 ) ;
#44 =( GEOMETRIC_REPRESENTATION_CONTEXT ( 3 ) GLOBAL_UNCERTAINTY_ASSIGNED_CONTEXT ( ( #150 ) ) GLOBAL_UNIT_ASSIGNED_CONTEXT ( ( #166, #167, #170 ) ) REPRESENTATION_CONTEXT ( 'NONE', 'WORKASPACE' ) );
#45 = LINE ( 'NONE', #15, #85 ) ;
#46 = ADVANCED_FACE ( 'NONE', ( #207 ), #26, .T. ) ;
#47 = DIRECTION ( 'NONE',  ( -0.0000000000000000000, -4.263351284058804300E-021, 1.000000000000000000 ) ) ;
#48 = ADVANCED_FACE ( 'NONE', ( #124 ), #69, .T. ) ;
#49 = CARTESIAN_POINT ( 'NONE',  ( 0.0000000000000000000, -3.073400000000006600, -1.310298383642635700E-020 ) ) ;
#50 = SURFACE_STYLE_FILL_AREA ( #64 ) ;
#51 = CARTESIAN_POINT ( 'NONE',  ( 0.0000000000000000000, 4.385839240729778000E-019, -102.8730439625974800 ) ) ;
#52 = VERTEX_POINT ( 'NONE', #180 ) ;
#53 = APPLICATION_PROTOCOL_DEFINITION ( 'draft international standard', 'automotive_design', 1998, #37 ) ;
#54 = AXIS2_PLACEMENT_3D ( 'NONE', #36, #7, #187 ) ;
#55 = SURFACE_STYLE_USAGE ( .BOTH. , #17 ) ;
#56 = CARTESIAN_POINT ( 'NONE',  ( 0.0000000000000000000, 2.620596767285349300E-021, -0.6146800000000195400 ) ) ;
#57 = PRODUCT_CONTEXT ( 'NONE', #37, 'mechanical' ) ;
#58 = EDGE_CURVE ( 'NONE', #173, #118, #171, .T. ) ;
#59 = ORIENTED_EDGE ( 'NONE', *, *, #139, .T. ) ;
#60 = CARTESIAN_POINT ( 'NONE',  ( 0.0000000000000000000, -3.824767359985826300E-018, 897.1269560374025800 ) ) ;
#61 = CARTESIAN_POINT ( 'NONE',  ( 0.0000000000000000000, 0.0000000000000000000, 0.0000000000000000000 ) ) ;
#62 = CARTESIAN_POINT ( 'NONE',  ( 3.763829472499483300E-016, 3.073400000000006600, 1.310298383642635700E-020 ) ) ;
#63 = ORIENTED_EDGE ( 'NONE', *, *, #155, .F. ) ;
#64 = FILL_AREA_STYLE ('',( #185 ) ) ;
#65 = EDGE_LOOP ( 'NONE', ( #201, #21, #189, #8 ) ) ;
#66 = DIRECTION ( 'NONE',  ( 0.0000000000000000000, 0.0000000000000000000, 1.000000000000000000 ) ) ;
#67 = FACE_OUTER_BOUND ( 'NONE', #39, .T. ) ;
#68 = CLOSED_SHELL ( 'NONE', ( #140, #193, #48, #178, #76, #110, #46 ) ) ;
#69 = CONICAL_SURFACE ( 'NONE', #147, 2414.213562373069200, 1.178097245096168600 ) ;
#70 = ORIENTED_EDGE ( 'NONE', *, *, #146, .F. ) ;
#71 = VECTOR ( 'NONE', #131, 1000.000000000000000 ) ;
#72 = ORIENTED_EDGE ( 'NONE', *, *, #126, .T. ) ;
#73 = CIRCLE ( 'NONE', #149, 2.458719999999997400 ) ;
#74 = EDGE_CURVE ( 'NONE', #195, #118, #162, .T. ) ;
#75 = VERTEX_POINT ( 'NONE', #182 ) ;
#76 = ADVANCED_FACE ( 'NONE', ( #111 ), #101, .T. ) ;
#77 = DIRECTION ( 'NONE',  ( -0.0000000000000000000, -4.263351284058804300E-021, 1.000000000000000000 ) ) ;
#78 = DIRECTION ( 'NONE',  ( 0.0000000000000000000, 1.000000000000000000, 0.0000000000000000000 ) ) ;
#79 = CARTESIAN_POINT ( 'NONE',  ( 0.0000000000000000000, -8.022984294164684000E-037, 1.881849221330555400E-016 ) ) ;
#80 = CARTESIAN_POINT ( 'NONE',  ( 0.0000000000000000000, 3.073399999999999900, 1.881980251168919700E-016 ) ) ;
#81 = VECTOR ( 'NONE', #129, 1000.000000000000000 ) ;
#82 = CARTESIAN_POINT ( 'NONE',  ( 0.0000000000000000000, -3.073400000000013200, -101.5999999999999900 ) ) ;
#83 = AXIS2_PLACEMENT_3D ( 'NONE', #14, #184, #214 ) ;
#84 =( LENGTH_UNIT ( ) NAMED_UNIT ( * ) SI_UNIT ( .MILLI., .METRE. ) );
#85 = VECTOR ( 'NONE', #93, 1000.000000000000000 ) ;
#86 =( NAMED_UNIT ( * ) PLANE_ANGLE_UNIT ( ) SI_UNIT ( $, .RADIAN. ) );
#87 =( LENGTH_UNIT ( ) NAMED_UNIT ( * ) SI_UNIT ( .MILLI., .METRE. ) );
#88 = DIRECTION ( 'NONE',  ( 0.0000000000000000000, 4.263351284058803600E-021, -1.000000000000000000 ) ) ;
#89 = EDGE_CURVE ( 'NONE', #75, #173, #154, .T. ) ;
#90 = EDGE_LOOP ( 'NONE', ( #100, #27, #22 ) ) ;
#91 = UNCERTAINTY_MEASURE_WITH_UNIT (LENGTH_MEASURE( 1.000000000000000100E-005 ), #84, 'distance_accuracy_value', 'NONE');
#92 = MECHANICAL_DESIGN_GEOMETRIC_PRESENTATION_REPRESENTATION (  '', ( #143 ), #44 ) ;
#93 = DIRECTION ( 'NONE',  ( 0.0000000000000000000, -0.9238795325112853000, 0.3826834323650932800 ) ) ;
#94 = DIRECTION ( 'NONE',  ( -0.0000000000000000000, -4.263351284058804300E-021, 1.000000000000000000 ) ) ;
#95 = AXIS2_PLACEMENT_3D ( 'NONE', #40, #88, #206 ) ;
#96 = DIRECTION ( 'NONE',  ( 0.0000000000000000000, -1.000000000000000000, -4.263351284058804300E-021 ) ) ;
#97 = APPLICATION_CONTEXT ( 'automotive_design' ) ;
#98 = FACE_OUTER_BOUND ( 'NONE', #107, .T. ) ;
#99 = CARTESIAN_POINT ( 'NONE',  ( 0.0000000000000000000, -3.824767359985826300E-018, 897.1269560374025800 ) ) ;
#100 = ORIENTED_EDGE ( 'NONE', *, *, #164, .F. ) ;
#101 = CONICAL_SURFACE ( 'NONE', #133, 2414.213562373069200, 1.178097245096168600 ) ;
#102 = AXIS2_PLACEMENT_3D ( 'NONE', #213, #33, #9 ) ;
#103 = ORIENTED_EDGE ( 'NONE', *, *, #74, .T. ) ;
#104 = CARTESIAN_POINT ( 'NONE',  ( 0.0000000000000000000, -8.022984294164684000E-037, 1.881849221330555400E-016 ) ) ;
#105 = LINE ( 'NONE', #51, #212 ) ;
#106 = CARTESIAN_POINT ( 'NONE',  ( 0.0000000000000000000, 4.331564904603744900E-019, -101.5999999999999900 ) ) ;
#107 = EDGE_LOOP ( 'NONE', ( #125, #35, #158, #132 ) ) ;
#108 = CARTESIAN_POINT ( 'NONE',  ( 3.011063577999576900E-016, -2.458719999999997400, 1.881744397459864200E-016 ) ) ;
#109 = DIRECTION ( 'NONE',  ( 0.0000000000000000000, 4.263351284058804300E-021, -1.000000000000000000 ) ) ;
#110 = ADVANCED_FACE ( 'NONE', ( #120 ), #43, .T. ) ;
#111 = FACE_OUTER_BOUND ( 'NONE', #90, .T. ) ;
#112 =( NAMED_UNIT ( * ) SI_UNIT ( $, .STERADIAN. ) SOLID_ANGLE_UNIT ( ) );
#113 = ORIENTED_EDGE ( 'NONE', *, *, #188, .F. ) ;
#114 = CARTESIAN_POINT ( 'NONE',  ( 3.763829472499483300E-016, 3.073400000000006600, -0.6146800000000195400 ) ) ;
#115 = UNCERTAINTY_MEASURE_WITH_UNIT (LENGTH_MEASURE( 1.000000000000000100E-005 ), #87, 'distance_accuracy_value', 'NONE');
#116 = FILL_AREA_STYLE ('',( #141 ) ) ;
#117 = COLOUR_RGB ( '',0.7921568627450980000, 0.8196078431372548800, 0.9333333333333333500 ) ;
#118 = VERTEX_POINT ( 'NONE', #196 ) ;
#119 = DIRECTION ( 'NONE',  ( -0.0000000000000000000, -4.263351284058804300E-021, 1.000000000000000000 ) ) ;
#120 = FACE_OUTER_BOUND ( 'NONE', #65, .T. ) ;
#121 = EDGE_LOOP ( 'NONE', ( #70, #148, #165 ) ) ;
#122 = CIRCLE ( 'NONE', #41, 3.073400000000006600 ) ;
#123 =( GEOMETRIC_REPRESENTATION_CONTEXT ( 3 ) GLOBAL_UNCERTAINTY_ASSIGNED_CONTEXT ( ( #115 ) ) GLOBAL_UNIT_ASSIGNED_CONTEXT ( ( #87, #203, #34 ) ) REPRESENTATION_CONTEXT ( 'NONE', 'WORKASPACE' ) );
#124 = FACE_OUTER_BOUND ( 'NONE', #121, .T. ) ;
#125 = ORIENTED_EDGE ( 'NONE', *, *, #191, .T. ) ;
#126 = EDGE_CURVE ( 'NONE', #195, #52, #73, .T. ) ;
#127 = DIRECTION ( 'NONE',  ( 1.131426112287698500E-016, 0.9238795325112853000, 0.3826834323650932800 ) ) ;
#128 = PRODUCT_DEFINITION_SHAPE ( 'NONE', 'NONE',  #172 ) ;
#129 = DIRECTION ( 'NONE',  ( 8.659560562354861400E-017, -0.7071067811865415800, -0.7071067811865535700 ) ) ;
#130 = DIRECTION ( 'NONE',  ( 0.0000000000000000000, 1.000000000000000000, 4.263351284058804300E-021 ) ) ;
#131 = DIRECTION ( 'NONE',  ( 0.0000000000000000000, 0.7071067811865415800, -0.7071067811865535700 ) ) ;
#132 = ORIENTED_EDGE ( 'NONE', *, *, #58, .F. ) ;
#133 = AXIS2_PLACEMENT_3D ( 'NONE', #60, #142, #179 ) ;
#134 = SURFACE_SIDE_STYLE ('',( #50 ) ) ;
#135 = MECHANICAL_DESIGN_GEOMETRIC_PRESENTATION_REPRESENTATION (  '', ( #138 ), #12 ) ;
#136 = CARTESIAN_POINT ( 'NONE',  ( 0.0000000000000000000, 4.385839240729778000E-019, -102.8730439625974800 ) ) ;
#137 = EDGE_CURVE ( 'NONE', #118, #205, #42, .T. ) ;
#138 = STYLED_ITEM ( 'NONE', ( #2 ), #3 ) ;
#139 = EDGE_CURVE ( 'NONE', #52, #195, #151, .T. ) ;
#140 = ADVANCED_FACE ( 'NONE', ( #67 ), #23, .T. ) ;
#141 = FILL_AREA_STYLE_COLOUR ( '', #117 ) ;
#142 = DIRECTION ( 'NONE',  ( -0.0000000000000000000, -4.263351284058804300E-021, 1.000000000000000000 ) ) ;
#143 = STYLED_ITEM ( 'NONE', ( #204 ), #190 ) ;
#144 = PRODUCT ( '03-0260', '03-0260', '', ( #57 ) ) ;
#145 = SHAPE_DEFINITION_REPRESENTATION ( #128, #3 ) ;
#146 = EDGE_CURVE ( 'NONE', #19, #173, #45, .T. ) ;
#147 = AXIS2_PLACEMENT_3D ( 'NONE', #99, #119, #30 ) ;
#148 = ORIENTED_EDGE ( 'NONE', *, *, #164, .T. ) ;
#149 = AXIS2_PLACEMENT_3D ( 'NONE', #104, #77, #1 ) ;
#150 = UNCERTAINTY_MEASURE_WITH_UNIT (LENGTH_MEASURE( 1.000000000000000100E-005 ), #166, 'distance_accuracy_value', 'NONE');
#151 = CIRCLE ( 'NONE', #177, 2.458719999999997400 ) ;
#152 = EDGE_LOOP ( 'NONE', ( #31, #5, #197, #209 ) ) ;
#153 = AXIS2_PLACEMENT_3D ( 'NONE', #169, #66, #202 ) ;
#154 = CIRCLE ( 'NONE', #28, 3.073400000000012800 ) ;
#155 = EDGE_CURVE ( 'NONE', #52, #205, #168, .T. ) ;
#156 = SURFACE_STYLE_FILL_AREA ( #116 ) ;
#157 = DIRECTION ( 'NONE',  ( 0.0000000000000000000, 4.263351284058803600E-021, -1.000000000000000000 ) ) ;
#158 = ORIENTED_EDGE ( 'NONE', *, *, #188, .T. ) ;
#159 = AXIS2_PLACEMENT_3D ( 'NONE', #61, #94, #96 ) ;
#160 = CARTESIAN_POINT ( 'NONE',  ( 0.0000000000000000000, 2.458719999999997400, 1.881954045201246900E-016 ) ) ;
#161 = DIRECTION ( 'NONE',  ( -0.0000000000000000000, -4.263351284058804300E-021, 1.000000000000000000 ) ) ;
#162 = LINE ( 'NONE', #108, #81 ) ;
#163 = SURFACE_STYLE_USAGE ( .BOTH. , #134 ) ;
#164 = EDGE_CURVE ( 'NONE', #19, #75, #105, .T. ) ;
#165 = ORIENTED_EDGE ( 'NONE', *, *, #191, .F. ) ;
#166 =( LENGTH_UNIT ( ) NAMED_UNIT ( * ) SI_UNIT ( .MILLI., .METRE. ) );
#167 =( NAMED_UNIT ( * ) PLANE_ANGLE_UNIT ( ) SI_UNIT ( $, .RADIAN. ) );
#168 = LINE ( 'NONE', #160, #71 ) ;
#169 = CARTESIAN_POINT ( 'NONE',  ( 0.0000000000000000000, 0.0000000000000000000, 0.0000000000000000000 ) ) ;
#170 =( NAMED_UNIT ( * ) SI_UNIT ( $, .STERADIAN. ) SOLID_ANGLE_UNIT ( ) );
#171 = LINE ( 'NONE', #49, #211 ) ;
#172 = PRODUCT_DEFINITION ( 'UNKNOWN', '', #183, #175 ) ;
#173 = VERTEX_POINT ( 'NONE', #82 ) ;
#174 = PRESENTATION_LAYER_ASSIGNMENT (  '', '', ( #138 ) ) ;
#175 = PRODUCT_DEFINITION_CONTEXT ( 'detailed design', #97, 'design' ) ;
#176 = EDGE_LOOP ( 'NONE', ( #59, #72 ) ) ;
#177 = AXIS2_PLACEMENT_3D ( 'NONE', #79, #11, #194 ) ;
#178 = ADVANCED_FACE ( 'NONE', ( #208 ), #16, .F. ) ;
#179 = DIRECTION ( 'NONE',  ( 0.0000000000000000000, -1.000000000000000000, 0.0000000000000000000 ) ) ;
#180 = CARTESIAN_POINT ( 'NONE',  ( 0.0000000000000000000, 2.458719999999997400, 1.881954045201246900E-016 ) ) ;
#181 = PRODUCT_RELATED_PRODUCT_CATEGORY ( 'part', '', ( #144 ) ) ;
#182 = CARTESIAN_POINT ( 'NONE',  ( 3.763829472499491100E-016, 3.073400000000013200, -101.5999999999999900 ) ) ;
#183 = PRODUCT_DEFINITION_FORMATION_WITH_SPECIFIED_SOURCE ( 'ANY', '', #144, .NOT_KNOWN. ) ;
#184 = DIRECTION ( 'NONE',  ( 0.0000000000000000000, 4.263351284058803600E-021, -1.000000000000000000 ) ) ;
#185 = FILL_AREA_STYLE_COLOUR ( '', #13 ) ;
#186 = EDGE_CURVE ( 'NONE', #75, #205, #38, .T. ) ;
#187 = DIRECTION ( 'NONE',  ( 0.0000000000000000000, -1.000000000000000000, 0.0000000000000000000 ) ) ;
#188 = EDGE_CURVE ( 'NONE', #205, #118, #122, .T. ) ;
#189 = ORIENTED_EDGE ( 'NONE', *, *, #58, .T. ) ;
#190 = MANIFOLD_SOLID_BREP ( '¸ðµû±â1', #68 ) ;
#191 = EDGE_CURVE ( 'NONE', #173, #75, #10, .T. ) ;
#192 = DIRECTION ( 'NONE',  ( 0.0000000000000000000, -1.000000000000000000, 0.0000000000000000000 ) ) ;
#193 = ADVANCED_FACE ( 'NONE', ( #98 ), #20, .T. ) ;
#194 = DIRECTION ( 'NONE',  ( 0.0000000000000000000, 1.000000000000000000, 4.263351284055108200E-021 ) ) ;
#195 = VERTEX_POINT ( 'NONE', #200 ) ;
#196 = CARTESIAN_POINT ( 'NONE',  ( 0.0000000000000000000, -3.073400000000006600, -0.6146800000000195400 ) ) ;
#197 = ORIENTED_EDGE ( 'NONE', *, *, #155, .T. ) ;
#198 = DIRECTION ( 'NONE',  ( 0.0000000000000000000, 1.000000000000000000, 0.0000000000000000000 ) ) ;
#199 = AXIS2_PLACEMENT_3D ( 'NONE', #80, #109, #130 ) ;
#200 = CARTESIAN_POINT ( 'NONE',  ( 3.387446525249530100E-016, -2.458719999999997400, 1.881744397459864200E-016 ) ) ;
#201 = ORIENTED_EDGE ( 'NONE', *, *, #186, .F. ) ;
#202 = DIRECTION ( 'NONE',  ( 1.000000000000000000, 0.0000000000000000000, 0.0000000000000000000 ) ) ;
#203 =( NAMED_UNIT ( * ) PLANE_ANGLE_UNIT ( ) SI_UNIT ( $, .RADIAN. ) );
#204 = PRESENTATION_STYLE_ASSIGNMENT (( #55 ) ) ;
#205 = VERTEX_POINT ( 'NONE', #114 ) ;
#206 = DIRECTION ( 'NONE',  ( 0.0000000000000000000, 1.000000000000000000, 4.263351284055108200E-021 ) ) ;
#207 = FACE_OUTER_BOUND ( 'NONE', #152, .T. ) ;
#208 = FACE_OUTER_BOUND ( 'NONE', #176, .T. ) ;
#209 = ORIENTED_EDGE ( 'NONE', *, *, #137, .F. ) ;
#210 = PRESENTATION_LAYER_ASSIGNMENT (  '', '', ( #143 ) ) ;
#211 = VECTOR ( 'NONE', #161, 1000.000000000000000 ) ;
#212 = VECTOR ( 'NONE', #127, 1000.000000000000000 ) ;
#213 = CARTESIAN_POINT ( 'NONE',  ( 0.0000000000000000000, 0.0000000000000000000, 0.0000000000000000000 ) ) ;
#214 = DIRECTION ( 'NONE',  ( 0.0000000000000000000, 1.000000000000000000, 4.263351284055108200E-021 ) ) ;
ENDSEC;
END-ISO-10303-21;
