ISO-10303-21;
HEADER;
FILE_DESCRIPTION (( 'STEP AP214' ),
    '1' );
FILE_NAME ('03-0261.STEP',
    '2020-07-23T06:02:53',
    ( '' ),
    ( '' ),
    'SwSTEP 2.0',
    'SolidWorks 2014',
    '' );
FILE_SCHEMA (( 'AUTOMOTIVE_DESIGN' ));
ENDSEC;

DATA;
#1 = DIRECTION ( 'NONE',  ( -0.0000000000000000000, 4.764312760223037800E-021, 1.000000000000000000 ) ) ;
#2 = PRESENTATION_STYLE_ASSIGNMENT (( #98 ) ) ;
#3 =( NAMED_UNIT ( * ) SI_UNIT ( $, .STERADIAN. ) SOLID_ANGLE_UNIT ( ) );
#4 = CARTESIAN_POINT ( 'NONE',  ( 0.0000000000000000000, -2.976933185097878900E-021, -0.6248400000000242600 ) ) ;
#5 = EDGE_CURVE ( 'NONE', #62, #104, #127, .T. ) ;
#6 = CARTESIAN_POINT ( 'NONE',  ( 0.0000000000000000000, 2.499359999999978000, 1.912976110950304000E-016 ) ) ;
#7 = VERTEX_POINT ( 'NONE', #81 ) ;
#8 = ORIENTED_EDGE ( 'NONE', *, *, #15, .T. ) ;
#9 = CIRCLE ( 'NONE', #167, 3.124200000000012100 ) ;
#10 = ADVANCED_FACE ( 'NONE', ( #112 ), #163, .T. ) ;
#11 = ORIENTED_EDGE ( 'NONE', *, *, #23, .T. ) ;
#12 = EDGE_CURVE ( 'NONE', #104, #62, #9, .T. ) ;
#13 = FACE_OUTER_BOUND ( 'NONE', #119, .T. ) ;
#14 = ORIENTED_EDGE ( 'NONE', *, *, #15, .F. ) ;
#15 = EDGE_CURVE ( 'NONE', #7, #56, #164, .T. ) ;
#16 =( GEOMETRIC_REPRESENTATION_CONTEXT ( 3 ) GLOBAL_UNCERTAINTY_ASSIGNED_CONTEXT ( ( #131 ) ) GLOBAL_UNIT_ASSIGNED_CONTEXT ( ( #37, #118, #3 ) ) REPRESENTATION_CONTEXT ( 'NONE', 'WORKASPACE' ) );
#17 = DIRECTION ( 'NONE',  ( 0.0000000000000000000, -1.000000000000000000, 0.0000000000000000000 ) ) ;
#18 = APPLICATION_CONTEXT ( 'automotive_design' ) ;
#19 = DIRECTION ( 'NONE',  ( 0.0000000000000000000, -1.000000000000000000, 0.0000000000000000000 ) ) ;
#20 = CARTESIAN_POINT ( 'NONE',  ( 3.826041529896168100E-016, 3.124200000000005900, -1.488466592548884200E-020 ) ) ;
#21 = DIRECTION ( 'NONE',  ( -0.0000000000000000000, 4.764312760223037800E-021, 1.000000000000000000 ) ) ;
#22 = CARTESIAN_POINT ( 'NONE',  ( 0.0000000000000000000, 3.124199999999999600, 1.912946341618453000E-016 ) ) ;
#23 = EDGE_CURVE ( 'NONE', #195, #34, #211, .T. ) ;
#24 = ORIENTED_EDGE ( 'NONE', *, *, #76, .F. ) ;
#25 = ADVANCED_FACE ( 'NONE', ( #46 ), #42, .T. ) ;
#26 = ORIENTED_EDGE ( 'NONE', *, *, #47, .F. ) ;
#27 = AXIS2_PLACEMENT_3D ( 'NONE', #200, #172, #141 ) ;
#28 = PRESENTATION_LAYER_ASSIGNMENT (  '', '', ( #63 ) ) ;
#29 = EDGE_LOOP ( 'NONE', ( #129, #196, #181, #139 ) ) ;
#30 = COLOUR_RGB ( '',0.7921568627450980000, 0.8196078431372548800, 0.9333333333333333500 ) ;
#31 = FILL_AREA_STYLE ('',( #198 ) ) ;
#32 = AXIS2_PLACEMENT_3D ( 'NONE', #33, #184, #187 ) ;
#33 = CARTESIAN_POINT ( 'NONE',  ( 0.0000000000000000000, 0.0000000000000000000, 0.0000000000000000000 ) ) ;
#34 = VERTEX_POINT ( 'NONE', #36 ) ;
#35 = LINE ( 'NONE', #20, #179 ) ;
#36 = CARTESIAN_POINT ( 'NONE',  ( 0.0000000000000000000, -3.124200000000005900, -0.6248400000000242600 ) ) ;
#37 =( LENGTH_UNIT ( ) NAMED_UNIT ( * ) SI_UNIT ( .MILLI., .METRE. ) );
#38 = DIRECTION ( 'NONE',  ( 0.0000000000000000000, -4.764312760223037800E-021, -1.000000000000000000 ) ) ;
#39 = PRODUCT_CONTEXT ( 'NONE', #18, 'mechanical' ) ;
#40 = CARTESIAN_POINT ( 'NONE',  ( 0.0000000000000000000, 0.0000000000000000000, 0.0000000000000000000 ) ) ;
#41 = EDGE_CURVE ( 'NONE', #145, #104, #84, .T. ) ;
#42 = CONICAL_SURFACE ( 'NONE', #197, 2414.213562373073700, 1.178097245096169300 ) ;
#43 = ORIENTED_EDGE ( 'NONE', *, *, #133, .T. ) ;
#44 = EDGE_CURVE ( 'NONE', #56, #34, #72, .T. ) ;
#45 = EDGE_LOOP ( 'NONE', ( #160, #14, #71, #189 ) ) ;
#46 = FACE_OUTER_BOUND ( 'NONE', #203, .T. ) ;
#47 = EDGE_CURVE ( 'NONE', #56, #7, #125, .T. ) ;
#48 = SURFACE_SIDE_STYLE ('',( #50 ) ) ;
#49 = DIRECTION ( 'NONE',  ( 8.659560562354953800E-017, -0.7071067811865492400, -0.7071067811865458000 ) ) ;
#50 = SURFACE_STYLE_FILL_AREA ( #31 ) ;
#51 = ORIENTED_EDGE ( 'NONE', *, *, #44, .T. ) ;
#52 = CARTESIAN_POINT ( 'NONE',  ( 0.0000000000000000000, 4.274093153286646900E-018, 897.1059139884339400 ) ) ;
#53 = SURFACE_STYLE_USAGE ( .BOTH. , #182 ) ;
#54 = PRODUCT_DEFINITION ( 'UNKNOWN', '', #159, #94 ) ;
#55 =( NAMED_UNIT ( * ) SI_UNIT ( $, .STERADIAN. ) SOLID_ANGLE_UNIT ( ) );
#56 = VERTEX_POINT ( 'NONE', #168 ) ;
#57 = CARTESIAN_POINT ( 'NONE',  ( 0.0000000000000000000, -3.124200000000011200, -101.5999999999999900 ) ) ;
#58 =( NAMED_UNIT ( * ) SI_UNIT ( $, .STERADIAN. ) SOLID_ANGLE_UNIT ( ) );
#59 = AXIS2_PLACEMENT_3D ( 'NONE', #87, #201, #183 ) ;
#60 = PRODUCT ( '03-0261', '03-0261', '', ( #39 ) ) ;
#61 = ADVANCED_FACE ( 'NONE', ( #169 ), #150, .T. ) ;
#62 = VERTEX_POINT ( 'NONE', #57 ) ;
#63 = STYLED_ITEM ( 'NONE', ( #2 ), #158 ) ;
#64 = CARTESIAN_POINT ( 'NONE',  ( 0.0000000000000000000, 9.114583817032778600E-037, 1.913095188277708000E-016 ) ) ;
#65 = SHAPE_DEFINITION_REPRESENTATION ( #109, #158 ) ;
#66 = COLOUR_RGB ( '',0.7921568627450980000, 0.8196078431372548800, 0.9333333333333333500 ) ;
#67 = DIRECTION ( 'NONE',  ( 0.0000000000000000000, 1.000000000000000000, -4.764312760226564700E-021 ) ) ;
#68 = AXIS2_PLACEMENT_3D ( 'NONE', #22, #103, #213 ) ;
#69 = CARTESIAN_POINT ( 'NONE',  ( 0.0000000000000000000, -2.976933185097878900E-021, -0.6248400000000242600 ) ) ;
#70 = CARTESIAN_POINT ( 'NONE',  ( 0.0000000000000000000, -4.840541764386605800E-019, -101.5999999999999900 ) ) ;
#71 = ORIENTED_EDGE ( 'NONE', *, *, #76, .T. ) ;
#72 = LINE ( 'NONE', #151, #114 ) ;
#73 = UNCERTAINTY_MEASURE_WITH_UNIT (LENGTH_MEASURE( 1.000000000000000100E-005 ), #191, 'distance_accuracy_value', 'NONE');
#74 = DIRECTION ( 'NONE',  ( -0.0000000000000000000, 4.764312760223037800E-021, 1.000000000000000000 ) ) ;
#75 = EDGE_LOOP ( 'NONE', ( #8, #92 ) ) ;
#76 = EDGE_CURVE ( 'NONE', #7, #195, #126, .T. ) ;
#77 = VECTOR ( 'NONE', #190, 1000.000000000000000 ) ;
#78 = CIRCLE ( 'NONE', #212, 3.124200000000005900 ) ;
#79 = LINE ( 'NONE', #202, #185 ) ;
#80 = VECTOR ( 'NONE', #86, 1000.000000000000000 ) ;
#81 = CARTESIAN_POINT ( 'NONE',  ( 0.0000000000000000000, 2.499359999999978000, 1.912976110950304000E-016 ) ) ;
#82 = DIRECTION ( 'NONE',  ( -0.0000000000000000000, 4.764312760223037800E-021, 1.000000000000000000 ) ) ;
#83 = CARTESIAN_POINT ( 'NONE',  ( 0.0000000000000000000, -4.902196069363908100E-019, -102.8940860115660300 ) ) ;
#84 = LINE ( 'NONE', #132, #208 ) ;
#85 = CARTESIAN_POINT ( 'NONE',  ( 3.826041529896168100E-016, 3.124200000000005900, -0.6248400000000242600 ) ) ;
#86 = DIRECTION ( 'NONE',  ( 0.0000000000000000000, -0.9238795325112855200, 0.3826834323650926700 ) ) ;
#87 = CARTESIAN_POINT ( 'NONE',  ( 0.0000000000000000000, 4.274093153286646900E-018, 897.1059139884339400 ) ) ;
#88 = ORIENTED_EDGE ( 'NONE', *, *, #41, .T. ) ;
#89 = FACE_OUTER_BOUND ( 'NONE', #143, .T. ) ;
#90 = ADVANCED_FACE ( 'NONE', ( #89 ), #192, .T. ) ;
#91 = MECHANICAL_DESIGN_GEOMETRIC_PRESENTATION_REPRESENTATION (  '', ( #63 ), #174 ) ;
#92 = ORIENTED_EDGE ( 'NONE', *, *, #47, .T. ) ;
#93 = MECHANICAL_DESIGN_GEOMETRIC_PRESENTATION_REPRESENTATION (  '', ( #110 ), #16 ) ;
#94 = PRODUCT_DEFINITION_CONTEXT ( 'detailed design', #105, 'design' ) ;
#95 = EDGE_LOOP ( 'NONE', ( #162, #88, #96 ) ) ;
#96 = ORIENTED_EDGE ( 'NONE', *, *, #5, .F. ) ;
#97 = DIRECTION ( 'NONE',  ( 0.0000000000000000000, 1.000000000000000000, -4.764312760226564700E-021 ) ) ;
#98 = SURFACE_STYLE_USAGE ( .BOTH. , #48 ) ;
#99 = AXIS2_PLACEMENT_3D ( 'NONE', #154, #135, #122 ) ;
#100 = FILL_AREA_STYLE_COLOUR ( '', #30 ) ;
#101 = DIRECTION ( 'NONE',  ( -0.0000000000000000000, 4.764312760223037800E-021, 1.000000000000000000 ) ) ;
#102 = DIRECTION ( 'NONE',  ( -0.0000000000000000000, 4.764312760223037800E-021, 1.000000000000000000 ) ) ;
#103 = DIRECTION ( 'NONE',  ( 0.0000000000000000000, -4.764312760223037800E-021, -1.000000000000000000 ) ) ;
#104 = VERTEX_POINT ( 'NONE', #120 ) ;
#105 = APPLICATION_CONTEXT ( 'automotive_design' ) ;
#106 = DIRECTION ( 'NONE',  ( -0.0000000000000000000, 4.764312760223037800E-021, 1.000000000000000000 ) ) ;
#107 = EDGE_CURVE ( 'NONE', #34, #195, #78, .T. ) ;
#108 = SURFACE_STYLE_FILL_AREA ( #138 ) ;
#109 = PRODUCT_DEFINITION_SHAPE ( 'NONE', 'NONE',  #54 ) ;
#110 = STYLED_ITEM ( 'NONE', ( #204 ), #175 ) ;
#111 = ORIENTED_EDGE ( 'NONE', *, *, #210, .T. ) ;
#112 = FACE_OUTER_BOUND ( 'NONE', #95, .T. ) ;
#113 = AXIS2_PLACEMENT_3D ( 'NONE', #137, #74, #140 ) ;
#114 = VECTOR ( 'NONE', #49, 1000.000000000000000 ) ;
#115 =( LENGTH_UNIT ( ) NAMED_UNIT ( * ) SI_UNIT ( .MILLI., .METRE. ) );
#116 = DIRECTION ( 'NONE',  ( 0.0000000000000000000, -1.000000000000000000, 0.0000000000000000000 ) ) ;
#117 = UNCERTAINTY_MEASURE_WITH_UNIT (LENGTH_MEASURE( 1.000000000000000100E-005 ), #115, 'distance_accuracy_value', 'NONE');
#118 =( NAMED_UNIT ( * ) PLANE_ANGLE_UNIT ( ) SI_UNIT ( $, .RADIAN. ) );
#119 = EDGE_LOOP ( 'NONE', ( #26, #51, #155, #24 ) ) ;
#120 = CARTESIAN_POINT ( 'NONE',  ( 3.826041529896174000E-016, 3.124200000000011200, -101.5999999999999900 ) ) ;
#121 = CYLINDRICAL_SURFACE ( 'NONE', #32, 3.124200000000005900 ) ;
#122 = DIRECTION ( 'NONE',  ( 0.0000000000000000000, 1.000000000000000000, -4.764312760226564700E-021 ) ) ;
#123 =( NAMED_UNIT ( * ) PLANE_ANGLE_UNIT ( ) SI_UNIT ( $, .RADIAN. ) );
#124 = APPLICATION_PROTOCOL_DEFINITION ( 'draft international standard', 'automotive_design', 1998, #105 ) ;
#125 = CIRCLE ( 'NONE', #113, 2.499359999999978000 ) ;
#126 = LINE ( 'NONE', #6, #77 ) ;
#127 = CIRCLE ( 'NONE', #176, 3.124200000000012100 ) ;
#128 = AXIS2_PLACEMENT_3D ( 'NONE', #165, #152, #67 ) ;
#129 = ORIENTED_EDGE ( 'NONE', *, *, #133, .F. ) ;
#130 = APPLICATION_PROTOCOL_DEFINITION ( 'draft international standard', 'automotive_design', 1998, #18 ) ;
#131 = UNCERTAINTY_MEASURE_WITH_UNIT (LENGTH_MEASURE( 1.000000000000000100E-005 ), #37, 'distance_accuracy_value', 'NONE');
#132 = CARTESIAN_POINT ( 'NONE',  ( 0.0000000000000000000, -4.902196069363908100E-019, -102.8940860115660300 ) ) ;
#133 = EDGE_CURVE ( 'NONE', #104, #195, #35, .T. ) ;
#134 = CONICAL_SURFACE ( 'NONE', #144, 2.499359999999978000, 0.7853981633974507200 ) ;
#135 = DIRECTION ( 'NONE',  ( 0.0000000000000000000, -4.764312760223037800E-021, -1.000000000000000000 ) ) ;
#136 = ORIENTED_EDGE ( 'NONE', *, *, #12, .F. ) ;
#137 = CARTESIAN_POINT ( 'NONE',  ( 0.0000000000000000000, 9.114583817032778600E-037, 1.913095188277708000E-016 ) ) ;
#138 = FILL_AREA_STYLE ('',( #100 ) ) ;
#139 = ORIENTED_EDGE ( 'NONE', *, *, #107, .T. ) ;
#140 = DIRECTION ( 'NONE',  ( 0.0000000000000000000, 1.000000000000000000, -4.764312760226564700E-021 ) ) ;
#141 = DIRECTION ( 'NONE',  ( 1.000000000000000000, 0.0000000000000000000, 0.0000000000000000000 ) ) ;
#142 = AXIS2_PLACEMENT_3D ( 'NONE', #4, #199, #214 ) ;
#143 = EDGE_LOOP ( 'NONE', ( #147, #43, #11, #193 ) ) ;
#144 = AXIS2_PLACEMENT_3D ( 'NONE', #64, #153, #97 ) ;
#145 = VERTEX_POINT ( 'NONE', #83 ) ;
#146 = LINE ( 'NONE', #188, #80 ) ;
#147 = ORIENTED_EDGE ( 'NONE', *, *, #5, .T. ) ;
#148 =( GEOMETRIC_REPRESENTATION_CONTEXT ( 3 ) GLOBAL_UNCERTAINTY_ASSIGNED_CONTEXT ( ( #117 ) ) GLOBAL_UNIT_ASSIGNED_CONTEXT ( ( #115, #123, #55 ) ) REPRESENTATION_CONTEXT ( 'NONE', 'WORKASPACE' ) );
#149 = PLANE ( 'NONE',  #68 ) ;
#150 = CONICAL_SURFACE ( 'NONE', #99, 2.499359999999978000, 0.7853981633974507200 ) ;
#151 = CARTESIAN_POINT ( 'NONE',  ( 3.060833223916902200E-016, -2.499359999999978000, 1.913214265605111900E-016 ) ) ;
#152 = DIRECTION ( 'NONE',  ( -0.0000000000000000000, 4.764312760223037800E-021, 1.000000000000000000 ) ) ;
#153 = DIRECTION ( 'NONE',  ( 0.0000000000000000000, -4.764312760223037800E-021, -1.000000000000000000 ) ) ;
#154 = CARTESIAN_POINT ( 'NONE',  ( 0.0000000000000000000, 9.114583817032778600E-037, 1.913095188277708000E-016 ) ) ;
#155 = ORIENTED_EDGE ( 'NONE', *, *, #23, .F. ) ;
#156 = ADVANCED_FACE ( 'NONE', ( #13 ), #134, .T. ) ;
#157 = FACE_OUTER_BOUND ( 'NONE', #75, .T. ) ;
#158 = ADVANCED_BREP_SHAPE_REPRESENTATION ( '03-0261', ( #175, #27 ), #148 ) ;
#159 = PRODUCT_DEFINITION_FORMATION_WITH_SPECIFIED_SOURCE ( 'ANY', '', #60, .NOT_KNOWN. ) ;
#160 = ORIENTED_EDGE ( 'NONE', *, *, #44, .F. ) ;
#161 = AXIS2_PLACEMENT_3D ( 'NONE', #40, #106, #171 ) ;
#162 = ORIENTED_EDGE ( 'NONE', *, *, #210, .F. ) ;
#163 = CONICAL_SURFACE ( 'NONE', #59, 2414.213562373073700, 1.178097245096169300 ) ;
#164 = CIRCLE ( 'NONE', #128, 2.499359999999978000 ) ;
#165 = CARTESIAN_POINT ( 'NONE',  ( 0.0000000000000000000, 9.114583817032778600E-037, 1.913095188277708000E-016 ) ) ;
#166 = DIRECTION ( 'NONE',  ( 0.0000000000000000000, 1.000000000000000000, 0.0000000000000000000 ) ) ;
#167 = AXIS2_PLACEMENT_3D ( 'NONE', #70, #102, #17 ) ;
#168 = CARTESIAN_POINT ( 'NONE',  ( 3.443437376906535400E-016, -2.499359999999978000, 1.913214265605111900E-016 ) ) ;
#169 = FACE_OUTER_BOUND ( 'NONE', #45, .T. ) ;
#170 = CARTESIAN_POINT ( 'NONE',  ( 0.0000000000000000000, -4.840541764386605800E-019, -101.5999999999999900 ) ) ;
#171 = DIRECTION ( 'NONE',  ( 0.0000000000000000000, -1.000000000000000000, 4.764312760223037800E-021 ) ) ;
#172 = DIRECTION ( 'NONE',  ( 0.0000000000000000000, 0.0000000000000000000, 1.000000000000000000 ) ) ;
#173 = ADVANCED_FACE ( 'NONE', ( #178 ), #121, .T. ) ;
#174 =( GEOMETRIC_REPRESENTATION_CONTEXT ( 3 ) GLOBAL_UNCERTAINTY_ASSIGNED_CONTEXT ( ( #73 ) ) GLOBAL_UNIT_ASSIGNED_CONTEXT ( ( #191, #205, #58 ) ) REPRESENTATION_CONTEXT ( 'NONE', 'WORKASPACE' ) );
#175 = MANIFOLD_SOLID_BREP ( '¸ðµû±â1', #177 ) ;
#176 = AXIS2_PLACEMENT_3D ( 'NONE', #170, #1, #19 ) ;
#177 = CLOSED_SHELL ( 'NONE', ( #156, #90, #10, #209, #25, #173, #61 ) ) ;
#178 = FACE_OUTER_BOUND ( 'NONE', #29, .T. ) ;
#179 = VECTOR ( 'NONE', #82, 1000.000000000000000 ) ;
#180 = PRODUCT_RELATED_PRODUCT_CATEGORY ( 'part', '', ( #60 ) ) ;
#181 = ORIENTED_EDGE ( 'NONE', *, *, #206, .T. ) ;
#182 = SURFACE_SIDE_STYLE ('',( #108 ) ) ;
#183 = DIRECTION ( 'NONE',  ( 0.0000000000000000000, -1.000000000000000000, 0.0000000000000000000 ) ) ;
#184 = DIRECTION ( 'NONE',  ( -0.0000000000000000000, 4.764312760223037800E-021, 1.000000000000000000 ) ) ;
#185 = VECTOR ( 'NONE', #101, 1000.000000000000000 ) ;
#186 = DIRECTION ( 'NONE',  ( 1.131426112287698800E-016, 0.9238795325112855200, 0.3826834323650926700 ) ) ;
#187 = DIRECTION ( 'NONE',  ( 0.0000000000000000000, -1.000000000000000000, 4.764312760223037800E-021 ) ) ;
#188 = CARTESIAN_POINT ( 'NONE',  ( 0.0000000000000000000, -4.902196069363908100E-019, -102.8940860115660300 ) ) ;
#189 = ORIENTED_EDGE ( 'NONE', *, *, #107, .F. ) ;
#190 = DIRECTION ( 'NONE',  ( 0.0000000000000000000, 0.7071067811865492400, -0.7071067811865458000 ) ) ;
#191 =( LENGTH_UNIT ( ) NAMED_UNIT ( * ) SI_UNIT ( .MILLI., .METRE. ) );
#192 = CYLINDRICAL_SURFACE ( 'NONE', #161, 3.124200000000005900 ) ;
#193 = ORIENTED_EDGE ( 'NONE', *, *, #206, .F. ) ;
#194 = PRESENTATION_LAYER_ASSIGNMENT (  '', '', ( #110 ) ) ;
#195 = VERTEX_POINT ( 'NONE', #85 ) ;
#196 = ORIENTED_EDGE ( 'NONE', *, *, #12, .T. ) ;
#197 = AXIS2_PLACEMENT_3D ( 'NONE', #52, #21, #116 ) ;
#198 = FILL_AREA_STYLE_COLOUR ( '', #66 ) ;
#199 = DIRECTION ( 'NONE',  ( 0.0000000000000000000, -4.764312760223037800E-021, -1.000000000000000000 ) ) ;
#200 = CARTESIAN_POINT ( 'NONE',  ( 0.0000000000000000000, 0.0000000000000000000, 0.0000000000000000000 ) ) ;
#201 = DIRECTION ( 'NONE',  ( -0.0000000000000000000, 4.764312760223037800E-021, 1.000000000000000000 ) ) ;
#202 = CARTESIAN_POINT ( 'NONE',  ( 0.0000000000000000000, -3.124200000000005900, 1.488466592548884200E-020 ) ) ;
#203 = EDGE_LOOP ( 'NONE', ( #207, #111, #136 ) ) ;
#204 = PRESENTATION_STYLE_ASSIGNMENT (( #53 ) ) ;
#205 =( NAMED_UNIT ( * ) PLANE_ANGLE_UNIT ( ) SI_UNIT ( $, .RADIAN. ) );
#206 = EDGE_CURVE ( 'NONE', #62, #34, #79, .T. ) ;
#207 = ORIENTED_EDGE ( 'NONE', *, *, #41, .F. ) ;
#208 = VECTOR ( 'NONE', #186, 1000.000000000000000 ) ;
#209 = ADVANCED_FACE ( 'NONE', ( #157 ), #149, .F. ) ;
#210 = EDGE_CURVE ( 'NONE', #145, #62, #146, .T. ) ;
#211 = CIRCLE ( 'NONE', #142, 3.124200000000005900 ) ;
#212 = AXIS2_PLACEMENT_3D ( 'NONE', #69, #38, #166 ) ;
#213 = DIRECTION ( 'NONE',  ( 0.0000000000000000000, 1.000000000000000000, -4.764312760223037800E-021 ) ) ;
#214 = DIRECTION ( 'NONE',  ( 0.0000000000000000000, 1.000000000000000000, 0.0000000000000000000 ) ) ;
ENDSEC;
END-ISO-10303-21;
