ISO-10303-21;
HEADER;
FILE_DESCRIPTION (( 'STEP AP214' ),
    '1' );
FILE_NAME ('03-0262.STEP',
    '2020-07-23T06:03:34',
    ( '' ),
    ( '' ),
    'SwSTEP 2.0',
    'SolidWorks 2014',
    '' );
FILE_SCHEMA (( 'AUTOMOTIVE_DESIGN' ));
ENDSEC;

DATA;
#1 = AXIS2_PLACEMENT_3D ( 'NONE', #121, #204, #187 ) ;
#2 = DIRECTION ( 'NONE',  ( -0.0000000000000000000, 1.044669682482167400E-020, 1.000000000000000000 ) ) ;
#3 = ORIENTED_EDGE ( 'NONE', *, *, #165, .F. ) ;
#4 = DIRECTION ( 'NONE',  ( 0.0000000000000000000, -1.000000000000000000, 1.044669682482167400E-020 ) ) ;
#5 = DIRECTION ( 'NONE',  ( -0.0000000000000000000, 1.044669682482167400E-020, 1.000000000000000000 ) ) ;
#6 =( NAMED_UNIT ( * ) SI_UNIT ( $, .STERADIAN. ) SOLID_ANGLE_UNIT ( ) );
#7 = CARTESIAN_POINT ( 'NONE',  ( 0.0000000000000000000, -3.175000000000006000, -0.6350000000000021200 ) ) ;
#8 = ORIENTED_EDGE ( 'NONE', *, *, #37, .T. ) ;
#9 = ORIENTED_EDGE ( 'NONE', *, *, #51, .T. ) ;
#10 = MECHANICAL_DESIGN_GEOMETRIC_PRESENTATION_REPRESENTATION (  '', ( #65 ), #18 ) ;
#11 = ORIENTED_EDGE ( 'NONE', *, *, #210, .F. ) ;
#12 =( NAMED_UNIT ( * ) SI_UNIT ( $, .STERADIAN. ) SOLID_ANGLE_UNIT ( ) );
#13 = CARTESIAN_POINT ( 'NONE',  ( 0.0000000000000000000, -1.075123141536102500E-018, -102.9151280605345800 ) ) ;
#14 = SURFACE_STYLE_FILL_AREA ( #22 ) ;
#15 = VERTEX_POINT ( 'NONE', #91 ) ;
#16 = CARTESIAN_POINT ( 'NONE',  ( 3.888253587292862400E-016, 3.175000000000013100, -101.5999999999999900 ) ) ;
#17 = CARTESIAN_POINT ( 'NONE',  ( 0.0000000000000000000, 2.540000000000014200, 1.944027288859166600E-016 ) ) ;
#18 =( GEOMETRIC_REPRESENTATION_CONTEXT ( 3 ) GLOBAL_UNCERTAINTY_ASSIGNED_CONTEXT ( ( #163 ) ) GLOBAL_UNIT_ASSIGNED_CONTEXT ( ( #207, #89, #125 ) ) REPRESENTATION_CONTEXT ( 'NONE', 'WORKASPACE' ) );
#19 = DIRECTION ( 'NONE',  ( -0.0000000000000000000, 1.044669682482167400E-020, 1.000000000000000000 ) ) ;
#20 = CARTESIAN_POINT ( 'NONE',  ( 0.0000000000000000000, 2.031143569614530700E-036, 1.944292634958517200E-016 ) ) ;
#21 = STYLED_ITEM ( 'NONE', ( #175 ), #39 ) ;
#22 = FILL_AREA_STYLE ('',( #126 ) ) ;
#23 = VERTEX_POINT ( 'NONE', #7 ) ;
#24 = AXIS2_PLACEMENT_3D ( 'NONE', #92, #169, #30 ) ;
#25 = CONICAL_SURFACE ( 'NONE', #149, 2.540000000000014200, 0.7853981633974397300 ) ;
#26 = ORIENTED_EDGE ( 'NONE', *, *, #46, .F. ) ;
#27 = AXIS2_PLACEMENT_3D ( 'NONE', #153, #155, #142 ) ;
#28 = ADVANCED_FACE ( 'NONE', ( #98 ), #47, .T. ) ;
#29 = CYLINDRICAL_SURFACE ( 'NONE', #60, 3.175000000000006000 ) ;
#30 = DIRECTION ( 'NONE',  ( 1.000000000000000000, 0.0000000000000000000, 0.0000000000000000000 ) ) ;
#31 = CARTESIAN_POINT ( 'NONE',  ( 0.0000000000000000000, 0.0000000000000000000, 0.0000000000000000000 ) ) ;
#32 = ORIENTED_EDGE ( 'NONE', *, *, #177, .F. ) ;
#33 = SURFACE_STYLE_USAGE ( .BOTH. , #134 ) ;
#34 = EDGE_CURVE ( 'NONE', #85, #23, #131, .T. ) ;
#35 = CARTESIAN_POINT ( 'NONE',  ( 3.110602869834294400E-016, -2.540000000000014200, 1.944557981057867800E-016 ) ) ;
#36 = VECTOR ( 'NONE', #38, 999.9999999999998900 ) ;
#37 = EDGE_CURVE ( 'NONE', #68, #193, #139, .T. ) ;
#38 = DIRECTION ( 'NONE',  ( 0.0000000000000000000, 0.7071067811865414700, -0.7071067811865536800 ) ) ;
#39 = MANIFOLD_SOLID_BREP ( '¸ðµû±â1', #212 ) ;
#40 = SURFACE_STYLE_FILL_AREA ( #54 ) ;
#41 = PLANE ( 'NONE',  #140 ) ;
#42 = ORIENTED_EDGE ( 'NONE', *, *, #46, .T. ) ;
#43 = CARTESIAN_POINT ( 'NONE',  ( 0.0000000000000000000, -3.175000000000013100, -101.5999999999999900 ) ) ;
#44 = VECTOR ( 'NONE', #57, 999.9999999999998900 ) ;
#45 = CARTESIAN_POINT ( 'NONE',  ( 0.0000000000000000000, 2.031143569614530700E-036, 1.944292634958517200E-016 ) ) ;
#46 = EDGE_CURVE ( 'NONE', #206, #193, #162, .T. ) ;
#47 = CONICAL_SURFACE ( 'NONE', #183, 2414.213562373081000, 1.178097245096170400 ) ;
#48 = UNCERTAINTY_MEASURE_WITH_UNIT (LENGTH_MEASURE( 1.000000000000000100E-005 ), #190, 'distance_accuracy_value', 'NONE');
#49 = PRESENTATION_LAYER_ASSIGNMENT (  '', '', ( #21 ) ) ;
#50 = ORIENTED_EDGE ( 'NONE', *, *, #34, .T. ) ;
#51 = EDGE_CURVE ( 'NONE', #68, #206, #118, .T. ) ;
#52 = APPLICATION_CONTEXT ( 'automotive_design' ) ;
#53 = DIRECTION ( 'NONE',  ( 0.0000000000000000000, 1.000000000000000000, 0.0000000000000000000 ) ) ;
#54 = FILL_AREA_STYLE ('',( #151 ) ) ;
#55 = AXIS2_PLACEMENT_3D ( 'NONE', #56, #184, #171 ) ;
#56 = CARTESIAN_POINT ( 'NONE',  ( 0.0000000000000000000, 9.371573683285571400E-018, 897.0848719394654200 ) ) ;
#57 = DIRECTION ( 'NONE',  ( 8.659560562354858900E-017, -0.7071067811865414700, -0.7071067811865536800 ) ) ;
#58 = EDGE_CURVE ( 'NONE', #206, #85, #135, .T. ) ;
#59 = ORIENTED_EDGE ( 'NONE', *, *, #67, .F. ) ;
#60 = AXIS2_PLACEMENT_3D ( 'NONE', #31, #70, #74 ) ;
#61 = DIRECTION ( 'NONE',  ( 0.0000000000000000000, 1.000000000000000000, -1.044669682482602500E-020 ) ) ;
#62 = MECHANICAL_DESIGN_GEOMETRIC_PRESENTATION_REPRESENTATION (  '', ( #21 ), #73 ) ;
#63 = PRESENTATION_STYLE_ASSIGNMENT (( #158 ) ) ;
#64 = ORIENTED_EDGE ( 'NONE', *, *, #143, .F. ) ;
#65 = STYLED_ITEM ( 'NONE', ( #63 ), #201 ) ;
#66 = EDGE_LOOP ( 'NONE', ( #11, #211, #124, #32 ) ) ;
#67 = EDGE_CURVE ( 'NONE', #117, #23, #86, .T. ) ;
#68 = VERTEX_POINT ( 'NONE', #87 ) ;
#69 = SHAPE_DEFINITION_REPRESENTATION ( #115, #201 ) ;
#70 = DIRECTION ( 'NONE',  ( -0.0000000000000000000, 1.044669682482167400E-020, 1.000000000000000000 ) ) ;
#71 = PRODUCT_CONTEXT ( 'NONE', #52, 'mechanical' ) ;
#72 = EDGE_LOOP ( 'NONE', ( #157, #9, #64 ) ) ;
#73 =( GEOMETRIC_REPRESENTATION_CONTEXT ( 3 ) GLOBAL_UNCERTAINTY_ASSIGNED_CONTEXT ( ( #123 ) ) GLOBAL_UNIT_ASSIGNED_CONTEXT ( ( #166, #116, #12 ) ) REPRESENTATION_CONTEXT ( 'NONE', 'WORKASPACE' ) );
#74 = DIRECTION ( 'NONE',  ( 0.0000000000000000000, -1.000000000000000000, 1.044669682482167400E-020 ) ) ;
#75 = FACE_OUTER_BOUND ( 'NONE', #186, .T. ) ;
#76 = CARTESIAN_POINT ( 'NONE',  ( 0.0000000000000000000, -1.061384397401882000E-018, -101.5999999999999900 ) ) ;
#77 = ORIENTED_EDGE ( 'NONE', *, *, #51, .F. ) ;
#78 = PRODUCT_DEFINITION_FORMATION_WITH_SPECIFIED_SOURCE ( 'ANY', '', #192, .NOT_KNOWN. ) ;
#79 = VECTOR ( 'NONE', #136, 1000.000000000000100 ) ;
#80 = PRODUCT_DEFINITION_CONTEXT ( 'detailed design', #150, 'design' ) ;
#81 = PRODUCT_DEFINITION ( 'UNKNOWN', '', #78, #80 ) ;
#82 = ORIENTED_EDGE ( 'NONE', *, *, #160, .F. ) ;
#83 = AXIS2_PLACEMENT_3D ( 'NONE', #93, #105, #96 ) ;
#84 = VECTOR ( 'NONE', #5, 1000.000000000000000 ) ;
#85 = VERTEX_POINT ( 'NONE', #202 ) ;
#86 = LINE ( 'NONE', #35, #44 ) ;
#87 = CARTESIAN_POINT ( 'NONE',  ( 0.0000000000000000000, -1.075123141536102500E-018, -102.9151280605345800 ) ) ;
#88 = CARTESIAN_POINT ( 'NONE',  ( 3.499428228563574200E-016, -2.540000000000014200, 1.944557981057867800E-016 ) ) ;
#89 =( NAMED_UNIT ( * ) PLANE_ANGLE_UNIT ( ) SI_UNIT ( $, .RADIAN. ) );
#90 = FACE_OUTER_BOUND ( 'NONE', #108, .T. ) ;
#91 = CARTESIAN_POINT ( 'NONE',  ( 0.0000000000000000000, 2.540000000000014200, 1.944027288859166600E-016 ) ) ;
#92 = CARTESIAN_POINT ( 'NONE',  ( 0.0000000000000000000, 0.0000000000000000000, 0.0000000000000000000 ) ) ;
#93 = CARTESIAN_POINT ( 'NONE',  ( 0.0000000000000000000, -1.061384397401882000E-018, -101.5999999999999900 ) ) ;
#94 = ORIENTED_EDGE ( 'NONE', *, *, #165, .T. ) ;
#95 = COLOUR_RGB ( '',0.7921568627450980000, 0.8196078431372548800, 0.9333333333333333500 ) ;
#96 = DIRECTION ( 'NONE',  ( 0.0000000000000000000, -1.000000000000000000, 0.0000000000000000000 ) ) ;
#97 = EDGE_LOOP ( 'NONE', ( #146, #101, #50, #3 ) ) ;
#98 = FACE_OUTER_BOUND ( 'NONE', #181, .T. ) ;
#99 =( GEOMETRIC_REPRESENTATION_CONTEXT ( 3 ) GLOBAL_UNCERTAINTY_ASSIGNED_CONTEXT ( ( #48 ) ) GLOBAL_UNIT_ASSIGNED_CONTEXT ( ( #190, #106, #6 ) ) REPRESENTATION_CONTEXT ( 'NONE', 'WORKASPACE' ) );
#100 = DIRECTION ( 'NONE',  ( 0.0000000000000000000, -1.044669682482167400E-020, -1.000000000000000000 ) ) ;
#101 = ORIENTED_EDGE ( 'NONE', *, *, #58, .T. ) ;
#102 = PRODUCT_RELATED_PRODUCT_CATEGORY ( 'part', '', ( #192 ) ) ;
#103 = DIRECTION ( 'NONE',  ( 0.0000000000000000000, -1.000000000000000000, 0.0000000000000000000 ) ) ;
#104 = DIRECTION ( 'NONE',  ( 0.0000000000000000000, 1.000000000000000000, -1.044669682482167400E-020 ) ) ;
#105 = DIRECTION ( 'NONE',  ( -0.0000000000000000000, 1.044669682482167400E-020, 1.000000000000000000 ) ) ;
#106 =( NAMED_UNIT ( * ) PLANE_ANGLE_UNIT ( ) SI_UNIT ( $, .RADIAN. ) );
#107 = DIRECTION ( 'NONE',  ( -0.0000000000000000000, 1.044669682482167400E-020, 1.000000000000000000 ) ) ;
#108 = EDGE_LOOP ( 'NONE', ( #59, #82, #161, #168 ) ) ;
#109 = ADVANCED_FACE ( 'NONE', ( #90 ), #25, .T. ) ;
#110 = CONICAL_SURFACE ( 'NONE', #55, 2414.213562373081000, 1.178097245096170400 ) ;
#111 = ORIENTED_EDGE ( 'NONE', *, *, #145, .T. ) ;
#112 = ADVANCED_FACE ( 'NONE', ( #209 ), #110, .T. ) ;
#113 = ADVANCED_FACE ( 'NONE', ( #75 ), #29, .T. ) ;
#114 = CIRCLE ( 'NONE', #156, 3.175000000000012700 ) ;
#115 = PRODUCT_DEFINITION_SHAPE ( 'NONE', 'NONE',  #81 ) ;
#116 =( NAMED_UNIT ( * ) PLANE_ANGLE_UNIT ( ) SI_UNIT ( $, .RADIAN. ) );
#117 = VERTEX_POINT ( 'NONE', #88 ) ;
#118 = LINE ( 'NONE', #13, #79 ) ;
#119 = DIRECTION ( 'NONE',  ( -0.0000000000000000000, 1.044669682482167400E-020, 1.000000000000000000 ) ) ;
#120 = FACE_OUTER_BOUND ( 'NONE', #97, .T. ) ;
#121 = CARTESIAN_POINT ( 'NONE',  ( 0.0000000000000000000, 2.031143569614530700E-036, 1.944292634958517200E-016 ) ) ;
#122 = CARTESIAN_POINT ( 'NONE',  ( 0.0000000000000000000, 3.174999999999999400, 1.943960952334329200E-016 ) ) ;
#123 = UNCERTAINTY_MEASURE_WITH_UNIT (LENGTH_MEASURE( 1.000000000000000100E-005 ), #166, 'distance_accuracy_value', 'NONE');
#124 = ORIENTED_EDGE ( 'NONE', *, *, #34, .F. ) ;
#125 =( NAMED_UNIT ( * ) SI_UNIT ( $, .STERADIAN. ) SOLID_ANGLE_UNIT ( ) );
#126 = FILL_AREA_STYLE_COLOUR ( '', #191 ) ;
#127 = DIRECTION ( 'NONE',  ( 0.0000000000000000000, 1.000000000000000000, -1.044669682482602500E-020 ) ) ;
#128 = DIRECTION ( 'NONE',  ( 0.0000000000000000000, -1.000000000000000000, 0.0000000000000000000 ) ) ;
#129 = CIRCLE ( 'NONE', #182, 2.540000000000014200 ) ;
#130 = VECTOR ( 'NONE', #132, 1000.000000000000100 ) ;
#131 = CIRCLE ( 'NONE', #195, 3.175000000000006000 ) ;
#132 = DIRECTION ( 'NONE',  ( 0.0000000000000000000, -0.9238795325112859600, 0.3826834323650916100 ) ) ;
#133 = AXIS2_PLACEMENT_3D ( 'NONE', #45, #179, #127 ) ;
#134 = SURFACE_SIDE_STYLE ('',( #40 ) ) ;
#135 = LINE ( 'NONE', #200, #178 ) ;
#136 = DIRECTION ( 'NONE',  ( 1.131426112287699300E-016, 0.9238795325112859600, 0.3826834323650916100 ) ) ;
#137 = ADVANCED_FACE ( 'NONE', ( #120 ), #154, .T. ) ;
#138 = EDGE_LOOP ( 'NONE', ( #199, #180 ) ) ;
#139 = LINE ( 'NONE', #213, #130 ) ;
#140 = AXIS2_PLACEMENT_3D ( 'NONE', #122, #189, #104 ) ;
#141 = ADVANCED_FACE ( 'NONE', ( #173 ), #164, .T. ) ;
#142 = DIRECTION ( 'NONE',  ( 0.0000000000000000000, 1.000000000000000000, 0.0000000000000000000 ) ) ;
#143 = EDGE_CURVE ( 'NONE', #193, #206, #114, .T. ) ;
#144 = SURFACE_SIDE_STYLE ('',( #14 ) ) ;
#145 = EDGE_CURVE ( 'NONE', #23, #85, #203, .T. ) ;
#146 = ORIENTED_EDGE ( 'NONE', *, *, #143, .T. ) ;
#147 = ADVANCED_FACE ( 'NONE', ( #159 ), #41, .F. ) ;
#148 = ORIENTED_EDGE ( 'NONE', *, *, #58, .F. ) ;
#149 = AXIS2_PLACEMENT_3D ( 'NONE', #152, #172, #185 ) ;
#150 = APPLICATION_CONTEXT ( 'automotive_design' ) ;
#151 = FILL_AREA_STYLE_COLOUR ( '', #95 ) ;
#152 = CARTESIAN_POINT ( 'NONE',  ( 0.0000000000000000000, 2.031143569614530700E-036, 1.944292634958517200E-016 ) ) ;
#153 = CARTESIAN_POINT ( 'NONE',  ( 0.0000000000000000000, -6.633652483761785300E-021, -0.6350000000000021200 ) ) ;
#154 = CYLINDRICAL_SURFACE ( 'NONE', #174, 3.175000000000006000 ) ;
#155 = DIRECTION ( 'NONE',  ( 0.0000000000000000000, -1.044669682482167400E-020, -1.000000000000000000 ) ) ;
#156 = AXIS2_PLACEMENT_3D ( 'NONE', #76, #188, #103 ) ;
#157 = ORIENTED_EDGE ( 'NONE', *, *, #37, .F. ) ;
#158 = SURFACE_STYLE_USAGE ( .BOTH. , #144 ) ;
#159 = FACE_OUTER_BOUND ( 'NONE', #138, .T. ) ;
#160 = EDGE_CURVE ( 'NONE', #15, #117, #129, .T. ) ;
#161 = ORIENTED_EDGE ( 'NONE', *, *, #177, .T. ) ;
#162 = CIRCLE ( 'NONE', #83, 3.175000000000012700 ) ;
#163 = UNCERTAINTY_MEASURE_WITH_UNIT (LENGTH_MEASURE( 1.000000000000000100E-005 ), #207, 'distance_accuracy_value', 'NONE');
#164 = CONICAL_SURFACE ( 'NONE', #1, 2.540000000000014200, 0.7853981633974397300 ) ;
#165 = EDGE_CURVE ( 'NONE', #193, #23, #196, .T. ) ;
#166 =( LENGTH_UNIT ( ) NAMED_UNIT ( * ) SI_UNIT ( .MILLI., .METRE. ) );
#167 = APPLICATION_PROTOCOL_DEFINITION ( 'draft international standard', 'automotive_design', 1998, #52 ) ;
#168 = ORIENTED_EDGE ( 'NONE', *, *, #145, .F. ) ;
#169 = DIRECTION ( 'NONE',  ( 0.0000000000000000000, 0.0000000000000000000, 1.000000000000000000 ) ) ;
#170 = LINE ( 'NONE', #17, #36 ) ;
#171 = DIRECTION ( 'NONE',  ( 0.0000000000000000000, -1.000000000000000000, 0.0000000000000000000 ) ) ;
#172 = DIRECTION ( 'NONE',  ( 0.0000000000000000000, -1.044669682482167400E-020, -1.000000000000000000 ) ) ;
#173 = FACE_OUTER_BOUND ( 'NONE', #66, .T. ) ;
#174 = AXIS2_PLACEMENT_3D ( 'NONE', #205, #2, #4 ) ;
#175 = PRESENTATION_STYLE_ASSIGNMENT (( #33 ) ) ;
#176 = CARTESIAN_POINT ( 'NONE',  ( 0.0000000000000000000, -3.175000000000006000, 3.316826241880887900E-020 ) ) ;
#177 = EDGE_CURVE ( 'NONE', #15, #85, #170, .T. ) ;
#178 = VECTOR ( 'NONE', #119, 1000.000000000000000 ) ;
#179 = DIRECTION ( 'NONE',  ( -0.0000000000000000000, 1.044669682482167400E-020, 1.000000000000000000 ) ) ;
#180 = ORIENTED_EDGE ( 'NONE', *, *, #210, .T. ) ;
#181 = EDGE_LOOP ( 'NONE', ( #77, #8, #26 ) ) ;
#182 = AXIS2_PLACEMENT_3D ( 'NONE', #20, #19, #61 ) ;
#183 = AXIS2_PLACEMENT_3D ( 'NONE', #208, #107, #128 ) ;
#184 = DIRECTION ( 'NONE',  ( -0.0000000000000000000, 1.044669682482167400E-020, 1.000000000000000000 ) ) ;
#185 = DIRECTION ( 'NONE',  ( 0.0000000000000000000, 1.000000000000000000, -1.044669682482602500E-020 ) ) ;
#186 = EDGE_LOOP ( 'NONE', ( #148, #42, #94, #111 ) ) ;
#187 = DIRECTION ( 'NONE',  ( 0.0000000000000000000, 1.000000000000000000, -1.044669682482602500E-020 ) ) ;
#188 = DIRECTION ( 'NONE',  ( -0.0000000000000000000, 1.044669682482167400E-020, 1.000000000000000000 ) ) ;
#189 = DIRECTION ( 'NONE',  ( 0.0000000000000000000, -1.044669682482167400E-020, -1.000000000000000000 ) ) ;
#190 =( LENGTH_UNIT ( ) NAMED_UNIT ( * ) SI_UNIT ( .MILLI., .METRE. ) );
#191 = COLOUR_RGB ( '',0.7921568627450980000, 0.8196078431372548800, 0.9333333333333333500 ) ;
#192 = PRODUCT ( '03-0262', '03-0262', '', ( #71 ) ) ;
#193 = VERTEX_POINT ( 'NONE', #43 ) ;
#194 = PRESENTATION_LAYER_ASSIGNMENT (  '', '', ( #65 ) ) ;
#195 = AXIS2_PLACEMENT_3D ( 'NONE', #198, #100, #53 ) ;
#196 = LINE ( 'NONE', #176, #84 ) ;
#197 = APPLICATION_PROTOCOL_DEFINITION ( 'draft international standard', 'automotive_design', 1998, #150 ) ;
#198 = CARTESIAN_POINT ( 'NONE',  ( 0.0000000000000000000, -6.633652483761785300E-021, -0.6350000000000021200 ) ) ;
#199 = ORIENTED_EDGE ( 'NONE', *, *, #160, .T. ) ;
#200 = CARTESIAN_POINT ( 'NONE',  ( 3.888253587292853500E-016, 3.175000000000006000, -3.316826241880887900E-020 ) ) ;
#201 = ADVANCED_BREP_SHAPE_REPRESENTATION ( '03-0262', ( #39, #24 ), #99 ) ;
#202 = CARTESIAN_POINT ( 'NONE',  ( 3.888253587292853500E-016, 3.175000000000006000, -0.6350000000000021200 ) ) ;
#203 = CIRCLE ( 'NONE', #27, 3.175000000000006000 ) ;
#204 = DIRECTION ( 'NONE',  ( 0.0000000000000000000, -1.044669682482167400E-020, -1.000000000000000000 ) ) ;
#205 = CARTESIAN_POINT ( 'NONE',  ( 0.0000000000000000000, 0.0000000000000000000, 0.0000000000000000000 ) ) ;
#206 = VERTEX_POINT ( 'NONE', #16 ) ;
#207 =( LENGTH_UNIT ( ) NAMED_UNIT ( * ) SI_UNIT ( .MILLI., .METRE. ) );
#208 = CARTESIAN_POINT ( 'NONE',  ( 0.0000000000000000000, 9.371573683285571400E-018, 897.0848719394654200 ) ) ;
#209 = FACE_OUTER_BOUND ( 'NONE', #72, .T. ) ;
#210 = EDGE_CURVE ( 'NONE', #117, #15, #214, .T. ) ;
#211 = ORIENTED_EDGE ( 'NONE', *, *, #67, .T. ) ;
#212 = CLOSED_SHELL ( 'NONE', ( #141, #137, #112, #147, #28, #113, #109 ) ) ;
#213 = CARTESIAN_POINT ( 'NONE',  ( 0.0000000000000000000, -1.075123141536102500E-018, -102.9151280605345800 ) ) ;
#214 = CIRCLE ( 'NONE', #133, 2.540000000000014200 ) ;
ENDSEC;
END-ISO-10303-21;
