ISO-10303-21;
HEADER;
FILE_DESCRIPTION (( 'STEP AP214' ),
    '1' );
FILE_NAME ('03-0265.STEP',
    '2020-07-23T06:05:37',
    ( '' ),
    ( '' ),
    'SwSTEP 2.0',
    'SolidWorks 2014',
    '' );
FILE_SCHEMA (( 'AUTOMOTIVE_DESIGN' ));
ENDSEC;

DATA;
#1 = VERTEX_POINT ( 'NONE', #213 ) ;
#2 = VECTOR ( 'NONE', #98, 1000.000000000000200 ) ;
#3 = CARTESIAN_POINT ( 'NONE',  ( 4.137101816879605300E-016, 3.378200000000013400, -104.7749999999999900 ) ) ;
#4 =( GEOMETRIC_REPRESENTATION_CONTEXT ( 3 ) GLOBAL_UNCERTAINTY_ASSIGNED_CONTEXT ( ( #144 ) ) GLOBAL_UNIT_ASSIGNED_CONTEXT ( ( #108, #164, #39 ) ) REPRESENTATION_CONTEXT ( 'NONE', 'WORKASPACE' ) );
#5 = DIRECTION ( 'NONE',  ( 0.0000000000000000000, -1.000000000000000000, 0.0000000000000000000 ) ) ;
#6 = APPLICATION_CONTEXT ( 'automotive_design' ) ;
#7 = VERTEX_POINT ( 'NONE', #42 ) ;
#8 = DIRECTION ( 'NONE',  ( 0.0000000000000000000, -1.000000000000000000, -3.380696844581062100E-020 ) ) ;
#9 = AXIS2_PLACEMENT_3D ( 'NONE', #46, #118, #8 ) ;
#10 = PRODUCT_RELATED_PRODUCT_CATEGORY ( 'part', '', ( #186 ) ) ;
#11 = STYLED_ITEM ( 'NONE', ( #91 ), #41 ) ;
#12 =( GEOMETRIC_REPRESENTATION_CONTEXT ( 3 ) GLOBAL_UNCERTAINTY_ASSIGNED_CONTEXT ( ( #166 ) ) GLOBAL_UNIT_ASSIGNED_CONTEXT ( ( #43, #141, #152 ) ) REPRESENTATION_CONTEXT ( 'NONE', 'WORKASPACE' ) );
#13 = PRODUCT_CONTEXT ( 'NONE', #6, 'mechanical' ) ;
#14 = AXIS2_PLACEMENT_3D ( 'NONE', #85, #198, #169 ) ;
#15 = EDGE_CURVE ( 'NONE', #49, #171, #205, .T. ) ;
#16 = EDGE_LOOP ( 'NONE', ( #117, #190, #33, #148 ) ) ;
#17 = CIRCLE ( 'NONE', #209, 2.702559999999965000 ) ;
#18 = LINE ( 'NONE', #27, #2 ) ;
#19 = CIRCLE ( 'NONE', #125, 2.702559999999965000 ) ;
#20 = AXIS2_PLACEMENT_3D ( 'NONE', #26, #54, #83 ) ;
#21 = CARTESIAN_POINT ( 'NONE',  ( 0.0000000000000000000, 3.589431083296561600E-018, -106.1742962564088100 ) ) ;
#22 = EDGE_CURVE ( 'NONE', #171, #207, #38, .T. ) ;
#23 = CIRCLE ( 'NONE', #52, 3.378200000000006800 ) ;
#24 = CARTESIAN_POINT ( 'NONE',  ( 9.213218522561986100E-050, 3.589431083296563100E-018, -106.1742962564088100 ) ) ;
#25 = CARTESIAN_POINT ( 'NONE',  ( 3.723391635191612600E-016, -2.702559999999965000, 2.067066221329346900E-016 ) ) ;
#26 = CARTESIAN_POINT ( 'NONE',  ( 0.0000000000000000000, -6.991213037852518300E-036, 2.067979874935776100E-016 ) ) ;
#27 = CARTESIAN_POINT ( 'NONE',  ( 0.0000000000000000000, 2.702559999999965000, 2.068893528542205200E-016 ) ) ;
#28 = APPLICATION_PROTOCOL_DEFINITION ( 'draft international standard', 'automotive_design', 1998, #6 ) ;
#29 = DIRECTION ( 'NONE',  ( -0.0000000000000000000, -3.380696844581062700E-020, 1.000000000000000000 ) ) ;
#30 = ORIENTED_EDGE ( 'NONE', *, *, #34, .F. ) ;
#31 = SHAPE_DEFINITION_REPRESENTATION ( #196, #41 ) ;
#32 = ORIENTED_EDGE ( 'NONE', *, *, #59, .T. ) ;
#33 = ORIENTED_EDGE ( 'NONE', *, *, #147, .T. ) ;
#34 = EDGE_CURVE ( 'NONE', #171, #62, #81, .T. ) ;
#35 = ORIENTED_EDGE ( 'NONE', *, *, #208, .F. ) ;
#36 = AXIS2_PLACEMENT_3D ( 'NONE', #80, #192, #180 ) ;
#37 = DIRECTION ( 'NONE',  ( -0.0000000000000000000, -3.380696844581062700E-020, 1.000000000000000000 ) ) ;
#38 = CIRCLE ( 'NONE', #36, 3.378200000000012500 ) ;
#39 =( NAMED_UNIT ( * ) SI_UNIT ( $, .STERADIAN. ) SOLID_ANGLE_UNIT ( ) );
#40 = ADVANCED_FACE ( 'NONE', ( #103 ), #178, .T. ) ;
#41 = ADVANCED_BREP_SHAPE_REPRESENTATION ( '03-0265', ( #71, #151 ), #12 ) ;
#42 = CARTESIAN_POINT ( 'NONE',  ( 0.0000000000000000000, 2.702559999999965000, 2.068893528542205200E-016 ) ) ;
#43 =( LENGTH_UNIT ( ) NAMED_UNIT ( * ) SI_UNIT ( .MILLI., .METRE. ) );
#44 = CARTESIAN_POINT ( 'NONE',  ( 0.0000000000000000000, -3.021753736251406800E-017, 893.8257037435911300 ) ) ;
#45 = DIRECTION ( 'NONE',  ( 0.0000000000000000000, 1.000000000000000000, 3.380696844581405800E-020 ) ) ;
#46 = CARTESIAN_POINT ( 'NONE',  ( 0.0000000000000000000, 0.0000000000000000000, 0.0000000000000000000 ) ) ;
#47 = ORIENTED_EDGE ( 'NONE', *, *, #15, .F. ) ;
#48 = APPLICATION_PROTOCOL_DEFINITION ( 'draft international standard', 'automotive_design', 1998, #57 ) ;
#49 = VERTEX_POINT ( 'NONE', #21 ) ;
#50 = PRODUCT_DEFINITION ( 'UNKNOWN', '', #75, #212 ) ;
#51 = SURFACE_STYLE_USAGE ( .BOTH. , #131 ) ;
#52 = AXIS2_PLACEMENT_3D ( 'NONE', #67, #122, #101 ) ;
#53 = ADVANCED_FACE ( 'NONE', ( #165 ), #90, .T. ) ;
#54 = DIRECTION ( 'NONE',  ( 0.0000000000000000000, 3.380696844581062700E-020, -1.000000000000000000 ) ) ;
#55 = PLANE ( 'NONE',  #188 ) ;
#56 = FILL_AREA_STYLE ('',( #139 ) ) ;
#57 = APPLICATION_CONTEXT ( 'automotive_design' ) ;
#58 =( NAMED_UNIT ( * ) SI_UNIT ( $, .STERADIAN. ) SOLID_ANGLE_UNIT ( ) );
#59 = EDGE_CURVE ( 'NONE', #49, #207, #123, .T. ) ;
#60 = SURFACE_STYLE_FILL_AREA ( #56 ) ;
#61 = VECTOR ( 'NONE', #184, 1000.000000000000200 ) ;
#62 = VERTEX_POINT ( 'NONE', #82 ) ;
#63 = AXIS2_PLACEMENT_3D ( 'NONE', #211, #97, #149 ) ;
#64 = DIRECTION ( 'NONE',  ( 1.131426112287697500E-016, 0.9238795325112844100, 0.3826834323650953300 ) ) ;
#65 = CARTESIAN_POINT ( 'NONE',  ( 0.0000000000000000000, 3.542125118909808200E-018, -104.7749999999999900 ) ) ;
#66 = EDGE_LOOP ( 'NONE', ( #30, #69, #110, #129 ) ) ;
#67 = CARTESIAN_POINT ( 'NONE',  ( 0.0000000000000000000, 2.284134016072874400E-020, -0.6756400000000369900 ) ) ;
#68 = CARTESIAN_POINT ( 'NONE',  ( 0.0000000000000000000, -6.991213037852518300E-036, 2.067979874935776100E-016 ) ) ;
#69 = ORIENTED_EDGE ( 'NONE', *, *, #22, .T. ) ;
#70 = FACE_OUTER_BOUND ( 'NONE', #16, .T. ) ;
#71 = MANIFOLD_SOLID_BREP ( '¸ðµû±â1', #158 ) ;
#72 = EDGE_CURVE ( 'NONE', #62, #1, #140, .T. ) ;
#73 = PRESENTATION_LAYER_ASSIGNMENT (  '', '', ( #11 ) ) ;
#74 = EDGE_LOOP ( 'NONE', ( #185, #173, #193, #35 ) ) ;
#75 = PRODUCT_DEFINITION_FORMATION_WITH_SPECIFIED_SOURCE ( 'ANY', '', #186, .NOT_KNOWN. ) ;
#76 = AXIS2_PLACEMENT_3D ( 'NONE', #115, #37, #111 ) ;
#77 = VECTOR ( 'NONE', #64, 1000.000000000000200 ) ;
#78 = EDGE_LOOP ( 'NONE', ( #47, #32, #128 ) ) ;
#79 = EDGE_CURVE ( 'NONE', #1, #62, #23, .T. ) ;
#80 = CARTESIAN_POINT ( 'NONE',  ( 0.0000000000000000000, 3.542125118909808200E-018, -104.7749999999999900 ) ) ;
#81 = LINE ( 'NONE', #95, #206 ) ;
#82 = CARTESIAN_POINT ( 'NONE',  ( 4.137101816879596900E-016, 3.378200000000006800, -0.6756400000000369900 ) ) ;
#83 = DIRECTION ( 'NONE',  ( 0.0000000000000000000, 1.000000000000000000, 3.380696844581405800E-020 ) ) ;
#84 = ORIENTED_EDGE ( 'NONE', *, *, #159, .T. ) ;
#85 = CARTESIAN_POINT ( 'NONE',  ( 0.0000000000000000000, -3.021753736251406800E-017, 893.8257037435911300 ) ) ;
#86 = CARTESIAN_POINT ( 'NONE',  ( 3.309681453503627800E-016, -2.702559999999965000, 2.067066221329346900E-016 ) ) ;
#87 = AXIS2_PLACEMENT_3D ( 'NONE', #65, #29, #119 ) ;
#88 = SURFACE_STYLE_FILL_AREA ( #163 ) ;
#89 = EDGE_LOOP ( 'NONE', ( #84, #197 ) ) ;
#90 = CONICAL_SURFACE ( 'NONE', #63, 2.702559999999965000, 0.7853981633974515000 ) ;
#91 = PRESENTATION_STYLE_ASSIGNMENT (( #127 ) ) ;
#92 = CYLINDRICAL_SURFACE ( 'NONE', #9, 3.378200000000006800 ) ;
#93 = ORIENTED_EDGE ( 'NONE', *, *, #176, .F. ) ;
#94 = PRESENTATION_LAYER_ASSIGNMENT (  '', '', ( #121 ) ) ;
#95 = CARTESIAN_POINT ( 'NONE',  ( 4.137101816879596900E-016, 3.378200000000006800, 1.142067008036376800E-019 ) ) ;
#96 = FACE_OUTER_BOUND ( 'NONE', #78, .T. ) ;
#97 = DIRECTION ( 'NONE',  ( 0.0000000000000000000, 3.380696844581062700E-020, -1.000000000000000000 ) ) ;
#98 = DIRECTION ( 'NONE',  ( 0.0000000000000000000, 0.7071067811865497900, -0.7071067811865452400 ) ) ;
#99 = CARTESIAN_POINT ( 'NONE',  ( 0.0000000000000000000, 3.378200000000000500, 2.069121941943812700E-016 ) ) ;
#100 = ADVANCED_FACE ( 'NONE', ( #112 ), #55, .F. ) ;
#101 = DIRECTION ( 'NONE',  ( 0.0000000000000000000, 1.000000000000000000, 0.0000000000000000000 ) ) ;
#102 = CARTESIAN_POINT ( 'NONE',  ( 0.0000000000000000000, -3.378200000000013400, -104.7749999999999900 ) ) ;
#103 = FACE_OUTER_BOUND ( 'NONE', #66, .T. ) ;
#104 = LINE ( 'NONE', #86, #61 ) ;
#105 = ORIENTED_EDGE ( 'NONE', *, *, #135, .F. ) ;
#106 = EDGE_CURVE ( 'NONE', #162, #1, #104, .T. ) ;
#107 = MECHANICAL_DESIGN_GEOMETRIC_PRESENTATION_REPRESENTATION (  '', ( #121 ), #4 ) ;
#108 =( LENGTH_UNIT ( ) NAMED_UNIT ( * ) SI_UNIT ( .MILLI., .METRE. ) );
#109 = CARTESIAN_POINT ( 'NONE',  ( 0.0000000000000000000, 3.589431083296561600E-018, -106.1742962564088100 ) ) ;
#110 = ORIENTED_EDGE ( 'NONE', *, *, #208, .T. ) ;
#111 = DIRECTION ( 'NONE',  ( 0.0000000000000000000, -1.000000000000000000, -3.380696844581062100E-020 ) ) ;
#112 = FACE_OUTER_BOUND ( 'NONE', #89, .T. ) ;
#113 = ADVANCED_FACE ( 'NONE', ( #202 ), #92, .T. ) ;
#114 = CARTESIAN_POINT ( 'NONE',  ( 0.0000000000000000000, 2.284134016072874400E-020, -0.6756400000000369900 ) ) ;
#115 = CARTESIAN_POINT ( 'NONE',  ( 0.0000000000000000000, 0.0000000000000000000, 0.0000000000000000000 ) ) ;
#116 = DIRECTION ( 'NONE',  ( 0.0000000000000000000, 3.380696844581062700E-020, -1.000000000000000000 ) ) ;
#117 = ORIENTED_EDGE ( 'NONE', *, *, #106, .F. ) ;
#118 = DIRECTION ( 'NONE',  ( -0.0000000000000000000, -3.380696844581062700E-020, 1.000000000000000000 ) ) ;
#119 = DIRECTION ( 'NONE',  ( 0.0000000000000000000, -1.000000000000000000, 0.0000000000000000000 ) ) ;
#120 = ADVANCED_FACE ( 'NONE', ( #96 ), #181, .T. ) ;
#121 = STYLED_ITEM ( 'NONE', ( #161 ), #71 ) ;
#122 = DIRECTION ( 'NONE',  ( 0.0000000000000000000, 3.380696844581062700E-020, -1.000000000000000000 ) ) ;
#123 = LINE ( 'NONE', #109, #133 ) ;
#124 = DIRECTION ( 'NONE',  ( 1.000000000000000000, 0.0000000000000000000, 0.0000000000000000000 ) ) ;
#125 = AXIS2_PLACEMENT_3D ( 'NONE', #68, #187, #138 ) ;
#126 = ORIENTED_EDGE ( 'NONE', *, *, #15, .T. ) ;
#127 = SURFACE_STYLE_USAGE ( .BOTH. , #170 ) ;
#128 = ORIENTED_EDGE ( 'NONE', *, *, #22, .F. ) ;
#129 = ORIENTED_EDGE ( 'NONE', *, *, #79, .T. ) ;
#130 = ADVANCED_FACE ( 'NONE', ( #174 ), #146, .T. ) ;
#131 = SURFACE_SIDE_STYLE ('',( #88 ) ) ;
#132 = FILL_AREA_STYLE_COLOUR ( '', #175 ) ;
#133 = VECTOR ( 'NONE', #179, 1000.000000000000200 ) ;
#134 = CARTESIAN_POINT ( 'NONE',  ( 0.0000000000000000000, -6.991213037852518300E-036, 2.067979874935776100E-016 ) ) ;
#135 = EDGE_CURVE ( 'NONE', #207, #171, #189, .T. ) ;
#136 = DIRECTION ( 'NONE',  ( -0.0000000000000000000, -3.380696844581062700E-020, 1.000000000000000000 ) ) ;
#137 = ADVANCED_FACE ( 'NONE', ( #70 ), #214, .T. ) ;
#138 = DIRECTION ( 'NONE',  ( 0.0000000000000000000, 1.000000000000000000, 3.380696844581405800E-020 ) ) ;
#139 = FILL_AREA_STYLE_COLOUR ( '', #191 ) ;
#140 = CIRCLE ( 'NONE', #142, 3.378200000000006800 ) ;
#141 =( NAMED_UNIT ( * ) PLANE_ANGLE_UNIT ( ) SI_UNIT ( $, .RADIAN. ) );
#142 = AXIS2_PLACEMENT_3D ( 'NONE', #114, #182, #150 ) ;
#143 = ORIENTED_EDGE ( 'NONE', *, *, #72, .F. ) ;
#144 = UNCERTAINTY_MEASURE_WITH_UNIT (LENGTH_MEASURE( 1.000000000000000100E-005 ), #108, 'distance_accuracy_value', 'NONE');
#145 =( GEOMETRIC_REPRESENTATION_CONTEXT ( 3 ) GLOBAL_UNCERTAINTY_ASSIGNED_CONTEXT ( ( #210 ) ) GLOBAL_UNIT_ASSIGNED_CONTEXT ( ( #203, #156, #58 ) ) REPRESENTATION_CONTEXT ( 'NONE', 'WORKASPACE' ) );
#146 = CONICAL_SURFACE ( 'NONE', #167, 2414.213562373053700, 1.178097245096166400 ) ;
#147 = EDGE_CURVE ( 'NONE', #7, #62, #18, .T. ) ;
#148 = ORIENTED_EDGE ( 'NONE', *, *, #79, .F. ) ;
#149 = DIRECTION ( 'NONE',  ( 0.0000000000000000000, 1.000000000000000000, 3.380696844581405800E-020 ) ) ;
#150 = DIRECTION ( 'NONE',  ( 0.0000000000000000000, 1.000000000000000000, 0.0000000000000000000 ) ) ;
#151 = AXIS2_PLACEMENT_3D ( 'NONE', #154, #204, #124 ) ;
#152 =( NAMED_UNIT ( * ) SI_UNIT ( $, .STERADIAN. ) SOLID_ANGLE_UNIT ( ) );
#153 = CARTESIAN_POINT ( 'NONE',  ( 0.0000000000000000000, -3.378200000000006800, -1.142067008036376800E-019 ) ) ;
#154 = CARTESIAN_POINT ( 'NONE',  ( 0.0000000000000000000, 0.0000000000000000000, 0.0000000000000000000 ) ) ;
#155 = MECHANICAL_DESIGN_GEOMETRIC_PRESENTATION_REPRESENTATION (  '', ( #11 ), #145 ) ;
#156 =( NAMED_UNIT ( * ) PLANE_ANGLE_UNIT ( ) SI_UNIT ( $, .RADIAN. ) );
#157 = VECTOR ( 'NONE', #200, 1000.000000000000000 ) ;
#158 = CLOSED_SHELL ( 'NONE', ( #53, #113, #130, #100, #120, #40, #137 ) ) ;
#159 = EDGE_CURVE ( 'NONE', #7, #162, #19, .T. ) ;
#160 = EDGE_LOOP ( 'NONE', ( #201, #126, #105 ) ) ;
#161 = PRESENTATION_STYLE_ASSIGNMENT (( #51 ) ) ;
#162 = VERTEX_POINT ( 'NONE', #25 ) ;
#163 = FILL_AREA_STYLE ('',( #132 ) ) ;
#164 =( NAMED_UNIT ( * ) PLANE_ANGLE_UNIT ( ) SI_UNIT ( $, .RADIAN. ) );
#165 = FACE_OUTER_BOUND ( 'NONE', #172, .T. ) ;
#166 = UNCERTAINTY_MEASURE_WITH_UNIT (LENGTH_MEASURE( 1.000000000000000100E-005 ), #43, 'distance_accuracy_value', 'NONE');
#167 = AXIS2_PLACEMENT_3D ( 'NONE', #44, #136, #5 ) ;
#168 = ORIENTED_EDGE ( 'NONE', *, *, #106, .T. ) ;
#169 = DIRECTION ( 'NONE',  ( 0.0000000000000000000, -1.000000000000000000, 0.0000000000000000000 ) ) ;
#170 = SURFACE_SIDE_STYLE ('',( #60 ) ) ;
#171 = VERTEX_POINT ( 'NONE', #3 ) ;
#172 = EDGE_LOOP ( 'NONE', ( #93, #168, #143, #177 ) ) ;
#173 = ORIENTED_EDGE ( 'NONE', *, *, #34, .T. ) ;
#174 = FACE_OUTER_BOUND ( 'NONE', #160, .T. ) ;
#175 = COLOUR_RGB ( '',0.7921568627450980000, 0.8196078431372548800, 0.9333333333333333500 ) ;
#176 = EDGE_CURVE ( 'NONE', #162, #7, #17, .T. ) ;
#177 = ORIENTED_EDGE ( 'NONE', *, *, #147, .F. ) ;
#178 = CYLINDRICAL_SURFACE ( 'NONE', #76, 3.378200000000006800 ) ;
#179 = DIRECTION ( 'NONE',  ( 0.0000000000000000000, -0.9238795325112844100, 0.3826834323650953300 ) ) ;
#180 = DIRECTION ( 'NONE',  ( 0.0000000000000000000, -1.000000000000000000, 0.0000000000000000000 ) ) ;
#181 = CONICAL_SURFACE ( 'NONE', #14, 2414.213562373053700, 1.178097245096166400 ) ;
#182 = DIRECTION ( 'NONE',  ( 0.0000000000000000000, 3.380696844581062700E-020, -1.000000000000000000 ) ) ;
#183 = DIRECTION ( 'NONE',  ( 0.0000000000000000000, 1.000000000000000000, 3.380696844581062700E-020 ) ) ;
#184 = DIRECTION ( 'NONE',  ( 8.659560562354960000E-017, -0.7071067811865497900, -0.7071067811865452400 ) ) ;
#185 = ORIENTED_EDGE ( 'NONE', *, *, #135, .T. ) ;
#186 = PRODUCT ( '03-0265', '03-0265', '', ( #13 ) ) ;
#187 = DIRECTION ( 'NONE',  ( -0.0000000000000000000, -3.380696844581062700E-020, 1.000000000000000000 ) ) ;
#188 = AXIS2_PLACEMENT_3D ( 'NONE', #99, #116, #183 ) ;
#189 = CIRCLE ( 'NONE', #87, 3.378200000000012500 ) ;
#190 = ORIENTED_EDGE ( 'NONE', *, *, #159, .F. ) ;
#191 = COLOUR_RGB ( '',0.7921568627450980000, 0.8196078431372548800, 0.9333333333333333500 ) ;
#192 = DIRECTION ( 'NONE',  ( -0.0000000000000000000, -3.380696844581062700E-020, 1.000000000000000000 ) ) ;
#193 = ORIENTED_EDGE ( 'NONE', *, *, #72, .T. ) ;
#194 = LINE ( 'NONE', #153, #157 ) ;
#195 = DIRECTION ( 'NONE',  ( -0.0000000000000000000, -3.380696844581062700E-020, 1.000000000000000000 ) ) ;
#196 = PRODUCT_DEFINITION_SHAPE ( 'NONE', 'NONE',  #50 ) ;
#197 = ORIENTED_EDGE ( 'NONE', *, *, #176, .T. ) ;
#198 = DIRECTION ( 'NONE',  ( -0.0000000000000000000, -3.380696844581062700E-020, 1.000000000000000000 ) ) ;
#199 = DIRECTION ( 'NONE',  ( -0.0000000000000000000, -3.380696844581062700E-020, 1.000000000000000000 ) ) ;
#200 = DIRECTION ( 'NONE',  ( -0.0000000000000000000, -3.380696844581062700E-020, 1.000000000000000000 ) ) ;
#201 = ORIENTED_EDGE ( 'NONE', *, *, #59, .F. ) ;
#202 = FACE_OUTER_BOUND ( 'NONE', #74, .T. ) ;
#203 =( LENGTH_UNIT ( ) NAMED_UNIT ( * ) SI_UNIT ( .MILLI., .METRE. ) );
#204 = DIRECTION ( 'NONE',  ( 0.0000000000000000000, 0.0000000000000000000, 1.000000000000000000 ) ) ;
#205 = LINE ( 'NONE', #24, #77 ) ;
#206 = VECTOR ( 'NONE', #195, 1000.000000000000000 ) ;
#207 = VERTEX_POINT ( 'NONE', #102 ) ;
#208 = EDGE_CURVE ( 'NONE', #207, #1, #194, .T. ) ;
#209 = AXIS2_PLACEMENT_3D ( 'NONE', #134, #199, #45 ) ;
#210 = UNCERTAINTY_MEASURE_WITH_UNIT (LENGTH_MEASURE( 1.000000000000000100E-005 ), #203, 'distance_accuracy_value', 'NONE');
#211 = CARTESIAN_POINT ( 'NONE',  ( 0.0000000000000000000, -6.991213037852518300E-036, 2.067979874935776100E-016 ) ) ;
#212 = PRODUCT_DEFINITION_CONTEXT ( 'detailed design', #57, 'design' ) ;
#213 = CARTESIAN_POINT ( 'NONE',  ( 0.0000000000000000000, -3.378200000000006800, -0.6756400000000369900 ) ) ;
#214 = CONICAL_SURFACE ( 'NONE', #20, 2.702559999999965000, 0.7853981633974515000 ) ;
ENDSEC;
END-ISO-10303-21;
