ISO-10303-21;
HEADER;
FILE_DESCRIPTION (( 'STEP AP214' ),
    '1' );
FILE_NAME ('03-0266.STEP',
    '2020-07-23T06:06:18',
    ( '' ),
    ( '' ),
    'SwSTEP 2.0',
    'SolidWorks 2014',
    '' );
FILE_SCHEMA (( 'AUTOMOTIVE_DESIGN' ));
ENDSEC;

DATA;
#1 = ORIENTED_EDGE ( 'NONE', *, *, #122, .F. ) ;
#2 = MANIFOLD_SOLID_BREP ( '¸ðµû±â1', #32 ) ;
#3 = VECTOR ( 'NONE', #46, 1000.000000000000100 ) ;
#4 =( GEOMETRIC_REPRESENTATION_CONTEXT ( 3 ) GLOBAL_UNCERTAINTY_ASSIGNED_CONTEXT ( ( #66 ) ) GLOBAL_UNIT_ASSIGNED_CONTEXT ( ( #48, #49, #119 ) ) REPRESENTATION_CONTEXT ( 'NONE', 'WORKASPACE' ) );
#5 = DIRECTION ( 'NONE',  ( 0.0000000000000000000, -0.9238795325112848500, 0.3826834323650943300 ) ) ;
#6 = LINE ( 'NONE', #114, #134 ) ;
#7 = DIRECTION ( 'NONE',  ( 0.0000000000000000000, -1.000000000000000000, 3.055735000245584400E-020 ) ) ;
#8 = SURFACE_SIDE_STYLE ('',( #71 ) ) ;
#9 = MECHANICAL_DESIGN_GEOMETRIC_PRESENTATION_REPRESENTATION (  '', ( #169 ), #202 ) ;
#10 = CONICAL_SURFACE ( 'NONE', #137, 2414.213562373061000, 1.178097245096167500 ) ;
#11 = DIRECTION ( 'NONE',  ( -0.0000000000000000000, 3.055735000245584400E-020, 1.000000000000000000 ) ) ;
#12 = DIRECTION ( 'NONE',  ( 0.0000000000000000000, 0.0000000000000000000, 1.000000000000000000 ) ) ;
#13 = CIRCLE ( 'NONE', #184, 3.454400000000013500 ) ;
#14 = ADVANCED_FACE ( 'NONE', ( #104 ), #167, .T. ) ;
#15 = CIRCLE ( 'NONE', #17, 3.454400000000006800 ) ;
#16 = LINE ( 'NONE', #213, #3 ) ;
#17 = AXIS2_PLACEMENT_3D ( 'NONE', #152, #75, #20 ) ;
#18 = PLANE ( 'NONE',  #171 ) ;
#19 = ORIENTED_EDGE ( 'NONE', *, *, #174, .F. ) ;
#20 = DIRECTION ( 'NONE',  ( 0.0000000000000000000, 1.000000000000000000, 0.0000000000000000000 ) ) ;
#21 = ORIENTED_EDGE ( 'NONE', *, *, #103, .F. ) ;
#22 = CARTESIAN_POINT ( 'NONE',  ( 0.0000000000000000000, -3.245369615854172500E-018, -106.2058593298616400 ) ) ;
#23 = DIRECTION ( 'NONE',  ( 0.0000000000000000000, 1.000000000000000000, -3.055735000245861300E-020 ) ) ;
#24 = ORIENTED_EDGE ( 'NONE', *, *, #192, .F. ) ;
#25 = CARTESIAN_POINT ( 'NONE',  ( 0.0000000000000000000, 2.763520000000005100, 2.114893279557762800E-016 ) ) ;
#26 = LINE ( 'NONE', #87, #131 ) ;
#27 = CARTESIAN_POINT ( 'NONE',  ( 0.0000000000000000000, -3.201646346507310800E-018, -104.7749999999999900 ) ) ;
#28 = CARTESIAN_POINT ( 'NONE',  ( 0.0000000000000000000, 0.0000000000000000000, 0.0000000000000000000 ) ) ;
#29 = VERTEX_POINT ( 'NONE', #140 ) ;
#30 = ORIENTED_EDGE ( 'NONE', *, *, #101, .F. ) ;
#31 = PRESENTATION_LAYER_ASSIGNMENT (  '', '', ( #204 ) ) ;
#32 = CLOSED_SHELL ( 'NONE', ( #14, #124, #84, #50, #86, #185, #135 ) ) ;
#33 = EDGE_CURVE ( 'NONE', #165, #123, #15, .T. ) ;
#34 = EDGE_CURVE ( 'NONE', #125, #63, #161, .T. ) ;
#35 = CIRCLE ( 'NONE', #177, 3.454400000000006800 ) ;
#36 = FACE_OUTER_BOUND ( 'NONE', #201, .T. ) ;
#37 = AXIS2_PLACEMENT_3D ( 'NONE', #116, #44, #23 ) ;
#38 = CIRCLE ( 'NONE', #159, 3.454400000000013500 ) ;
#39 = CARTESIAN_POINT ( 'NONE',  ( 0.0000000000000000000, 6.465133857458712900E-036, 2.115737738036550800E-016 ) ) ;
#40 = CARTESIAN_POINT ( 'NONE',  ( 0.0000000000000000000, -3.454400000000006800, -0.6908800000000016000 ) ) ;
#41 = ORIENTED_EDGE ( 'NONE', *, *, #101, .T. ) ;
#42 = DIRECTION ( 'NONE',  ( -0.0000000000000000000, 3.055735000245584400E-020, 1.000000000000000000 ) ) ;
#43 = DIRECTION ( 'NONE',  ( -0.0000000000000000000, 3.055735000245584400E-020, 1.000000000000000000 ) ) ;
#44 = DIRECTION ( 'NONE',  ( 0.0000000000000000000, -3.055735000245584400E-020, -1.000000000000000000 ) ) ;
#45 = AXIS2_PLACEMENT_3D ( 'NONE', #196, #12, #166 ) ;
#46 = DIRECTION ( 'NONE',  ( 8.659560562354932900E-017, -0.7071067811865474600, -0.7071067811865474600 ) ) ;
#47 = APPLICATION_PROTOCOL_DEFINITION ( 'draft international standard', 'automotive_design', 1998, #133 ) ;
#48 =( LENGTH_UNIT ( ) NAMED_UNIT ( * ) SI_UNIT ( .MILLI., .METRE. ) );
#49 =( NAMED_UNIT ( * ) PLANE_ANGLE_UNIT ( ) SI_UNIT ( $, .RADIAN. ) );
#50 = ADVANCED_FACE ( 'NONE', ( #94 ), #18, .F. ) ;
#51 = EDGE_LOOP ( 'NONE', ( #203, #70 ) ) ;
#52 = CIRCLE ( 'NONE', #117, 2.763520000000005100 ) ;
#53 = ORIENTED_EDGE ( 'NONE', *, *, #81, .F. ) ;
#54 = DIRECTION ( 'NONE',  ( 0.0000000000000000000, 1.000000000000000000, -3.055735000245861300E-020 ) ) ;
#55 = ADVANCED_BREP_SHAPE_REPRESENTATION ( '03-0266', ( #2, #45 ), #64 ) ;
#56 = SURFACE_STYLE_USAGE ( .BOTH. , #91 ) ;
#57 = FILL_AREA_STYLE ('',( #80 ) ) ;
#58 = LINE ( 'NONE', #128, #186 ) ;
#59 =( NAMED_UNIT ( * ) PLANE_ANGLE_UNIT ( ) SI_UNIT ( $, .RADIAN. ) );
#60 = ORIENTED_EDGE ( 'NONE', *, *, #34, .F. ) ;
#61 = DIRECTION ( 'NONE',  ( -0.0000000000000000000, 3.055735000245584400E-020, 1.000000000000000000 ) ) ;
#62 = CARTESIAN_POINT ( 'NONE',  ( 4.230419902974632300E-016, 3.454400000000012600, -104.7749999999999900 ) ) ;
#63 = VERTEX_POINT ( 'NONE', #90 ) ;
#64 =( GEOMETRIC_REPRESENTATION_CONTEXT ( 3 ) GLOBAL_UNCERTAINTY_ASSIGNED_CONTEXT ( ( #168 ) ) GLOBAL_UNIT_ASSIGNED_CONTEXT ( ( #162, #59, #195 ) ) REPRESENTATION_CONTEXT ( 'NONE', 'WORKASPACE' ) );
#65 = PRODUCT_CONTEXT ( 'NONE', #158, 'mechanical' ) ;
#66 = UNCERTAINTY_MEASURE_WITH_UNIT (LENGTH_MEASURE( 1.000000000000000100E-005 ), #48, 'distance_accuracy_value', 'NONE');
#67 = AXIS2_PLACEMENT_3D ( 'NONE', #207, #139, #54 ) ;
#68 = EDGE_LOOP ( 'NONE', ( #53, #89, #153 ) ) ;
#69 = CONICAL_SURFACE ( 'NONE', #110, 2414.213562373061000, 1.178097245096167500 ) ;
#70 = ORIENTED_EDGE ( 'NONE', *, *, #192, .T. ) ;
#71 = SURFACE_STYLE_FILL_AREA ( #57 ) ;
#72 = EDGE_LOOP ( 'NONE', ( #156, #212, #136, #200 ) ) ;
#73 = DIRECTION ( 'NONE',  ( -0.0000000000000000000, 3.055735000245584400E-020, 1.000000000000000000 ) ) ;
#74 = DIRECTION ( 'NONE',  ( 0.0000000000000000000, 1.000000000000000000, -3.055735000245861300E-020 ) ) ;
#75 = DIRECTION ( 'NONE',  ( 0.0000000000000000000, -3.055735000245584400E-020, -1.000000000000000000 ) ) ;
#76 = DIRECTION ( 'NONE',  ( 0.0000000000000000000, 0.7071067811865474600, -0.7071067811865474600 ) ) ;
#77 = CARTESIAN_POINT ( 'NONE',  ( 0.0000000000000000000, 0.0000000000000000000, 0.0000000000000000000 ) ) ;
#78 = DIRECTION ( 'NONE',  ( 0.0000000000000000000, -1.000000000000000000, 3.055735000245584400E-020 ) ) ;
#79 = ORIENTED_EDGE ( 'NONE', *, *, #149, .T. ) ;
#80 = FILL_AREA_STYLE_COLOUR ( '', #150 ) ;
#81 = EDGE_CURVE ( 'NONE', #118, #29, #26, .T. ) ;
#82 = ORIENTED_EDGE ( 'NONE', *, *, #102, .T. ) ;
#83 = VECTOR ( 'NONE', #107, 1000.000000000000000 ) ;
#84 = ADVANCED_FACE ( 'NONE', ( #115 ), #10, .T. ) ;
#85 = EDGE_CURVE ( 'NONE', #118, #194, #181, .T. ) ;
#86 = ADVANCED_FACE ( 'NONE', ( #36 ), #69, .T. ) ;
#87 = CARTESIAN_POINT ( 'NONE',  ( 0.0000000000000000000, -3.245369615854172500E-018, -106.2058593298616400 ) ) ;
#88 = FACE_OUTER_BOUND ( 'NONE', #72, .T. ) ;
#89 = ORIENTED_EDGE ( 'NONE', *, *, #85, .T. ) ;
#90 = CARTESIAN_POINT ( 'NONE',  ( 3.807377912677162400E-016, -2.763520000000005100, 2.116582196515338800E-016 ) ) ;
#91 = SURFACE_SIDE_STYLE ('',( #100 ) ) ;
#92 =( LENGTH_UNIT ( ) NAMED_UNIT ( * ) SI_UNIT ( .MILLI., .METRE. ) );
#93 = CARTESIAN_POINT ( 'NONE',  ( 0.0000000000000000000, 2.731198038660167200E-017, 893.7941406701384000 ) ) ;
#94 = FACE_OUTER_BOUND ( 'NONE', #51, .T. ) ;
#95 = PRESENTATION_LAYER_ASSIGNMENT (  '', '', ( #169 ) ) ;
#96 = DIRECTION ( 'NONE',  ( -0.0000000000000000000, 3.055735000245584400E-020, 1.000000000000000000 ) ) ;
#97 = DIRECTION ( 'NONE',  ( 0.0000000000000000000, -3.055735000245584400E-020, -1.000000000000000000 ) ) ;
#98 = VECTOR ( 'NONE', #61, 1000.000000000000000 ) ;
#99 = DIRECTION ( 'NONE',  ( 0.0000000000000000000, 1.000000000000000000, -3.055735000245861300E-020 ) ) ;
#100 = SURFACE_STYLE_FILL_AREA ( #187 ) ;
#101 = EDGE_CURVE ( 'NONE', #125, #165, #6, .T. ) ;
#102 = EDGE_CURVE ( 'NONE', #63, #123, #16, .T. ) ;
#103 = EDGE_CURVE ( 'NONE', #123, #165, #35, .T. ) ;
#104 = FACE_OUTER_BOUND ( 'NONE', #197, .T. ) ;
#105 = CYLINDRICAL_SURFACE ( 'NONE', #182, 3.454400000000006800 ) ;
#106 =( NAMED_UNIT ( * ) SI_UNIT ( $, .STERADIAN. ) SOLID_ANGLE_UNIT ( ) );
#107 = DIRECTION ( 'NONE',  ( 1.131426112287698000E-016, 0.9238795325112848500, 0.3826834323650943300 ) ) ;
#108 = ORIENTED_EDGE ( 'NONE', *, *, #122, .T. ) ;
#109 = CARTESIAN_POINT ( 'NONE',  ( 0.0000000000000000000, 3.454400000000000100, 2.114682164938066000E-016 ) ) ;
#110 = AXIS2_PLACEMENT_3D ( 'NONE', #189, #73, #205 ) ;
#111 = FILL_AREA_STYLE_COLOUR ( '', #172 ) ;
#112 = CARTESIAN_POINT ( 'NONE',  ( 0.0000000000000000000, -2.111146196969674100E-020, -0.6908800000000016000 ) ) ;
#113 = CARTESIAN_POINT ( 'NONE',  ( 4.230419902974625400E-016, 3.454400000000006800, -0.6908800000000016000 ) ) ;
#114 = CARTESIAN_POINT ( 'NONE',  ( 0.0000000000000000000, 2.763520000000005100, 2.114893279557762800E-016 ) ) ;
#115 = FACE_OUTER_BOUND ( 'NONE', #68, .T. ) ;
#116 = CARTESIAN_POINT ( 'NONE',  ( 0.0000000000000000000, 6.465133857458712900E-036, 2.115737738036550800E-016 ) ) ;
#117 = AXIS2_PLACEMENT_3D ( 'NONE', #164, #210, #99 ) ;
#118 = VERTEX_POINT ( 'NONE', #190 ) ;
#119 =( NAMED_UNIT ( * ) SI_UNIT ( $, .STERADIAN. ) SOLID_ANGLE_UNIT ( ) );
#120 = PRODUCT ( '03-0266', '03-0266', '', ( #65 ) ) ;
#121 = ORIENTED_EDGE ( 'NONE', *, *, #102, .F. ) ;
#122 = EDGE_CURVE ( 'NONE', #194, #29, #38, .T. ) ;
#123 = VERTEX_POINT ( 'NONE', #40 ) ;
#124 = ADVANCED_FACE ( 'NONE', ( #88 ), #151, .T. ) ;
#125 = VERTEX_POINT ( 'NONE', #25 ) ;
#126 =( NAMED_UNIT ( * ) PLANE_ANGLE_UNIT ( ) SI_UNIT ( $, .RADIAN. ) );
#127 = PRESENTATION_STYLE_ASSIGNMENT (( #56 ) ) ;
#128 = CARTESIAN_POINT ( 'NONE',  ( 0.0000000000000000000, -3.454400000000006800, 1.055573098484836700E-019 ) ) ;
#129 = AXIS2_PLACEMENT_3D ( 'NONE', #77, #43, #78 ) ;
#130 = CARTESIAN_POINT ( 'NONE',  ( 0.0000000000000000000, -3.201646346507310800E-018, -104.7749999999999900 ) ) ;
#131 = VECTOR ( 'NONE', #5, 1000.000000000000000 ) ;
#132 = ORIENTED_EDGE ( 'NONE', *, *, #103, .T. ) ;
#133 = APPLICATION_CONTEXT ( 'automotive_design' ) ;
#134 = VECTOR ( 'NONE', #76, 1000.000000000000100 ) ;
#135 = ADVANCED_FACE ( 'NONE', ( #160 ), #191, .T. ) ;
#136 = ORIENTED_EDGE ( 'NONE', *, *, #33, .T. ) ;
#137 = AXIS2_PLACEMENT_3D ( 'NONE', #93, #188, #143 ) ;
#138 = PRODUCT_DEFINITION ( 'UNKNOWN', '', #146, #199 ) ;
#139 = DIRECTION ( 'NONE',  ( -0.0000000000000000000, 3.055735000245584400E-020, 1.000000000000000000 ) ) ;
#140 = CARTESIAN_POINT ( 'NONE',  ( 0.0000000000000000000, -3.454400000000012600, -104.7749999999999900 ) ) ;
#141 = ORIENTED_EDGE ( 'NONE', *, *, #85, .F. ) ;
#142 = EDGE_CURVE ( 'NONE', #29, #194, #13, .T. ) ;
#143 = DIRECTION ( 'NONE',  ( 0.0000000000000000000, -1.000000000000000000, 0.0000000000000000000 ) ) ;
#144 = AXIS2_PLACEMENT_3D ( 'NONE', #39, #176, #74 ) ;
#145 = FACE_OUTER_BOUND ( 'NONE', #148, .T. ) ;
#146 = PRODUCT_DEFINITION_FORMATION_WITH_SPECIFIED_SOURCE ( 'ANY', '', #120, .NOT_KNOWN. ) ;
#147 = PRESENTATION_STYLE_ASSIGNMENT (( #209 ) ) ;
#148 = EDGE_LOOP ( 'NONE', ( #19, #108, #79, #132 ) ) ;
#149 = EDGE_CURVE ( 'NONE', #29, #123, #58, .T. ) ;
#150 = COLOUR_RGB ( '',0.7921568627450980000, 0.8196078431372548800, 0.9333333333333333500 ) ;
#151 = CYLINDRICAL_SURFACE ( 'NONE', #129, 3.454400000000006800 ) ;
#152 = CARTESIAN_POINT ( 'NONE',  ( 0.0000000000000000000, -2.111146196969674100E-020, -0.6908800000000016000 ) ) ;
#153 = ORIENTED_EDGE ( 'NONE', *, *, #142, .F. ) ;
#154 = PRODUCT_DEFINITION_SHAPE ( 'NONE', 'NONE',  #138 ) ;
#155 = PRODUCT_RELATED_PRODUCT_CATEGORY ( 'part', '', ( #120 ) ) ;
#156 = ORIENTED_EDGE ( 'NONE', *, *, #142, .T. ) ;
#157 = DIRECTION ( 'NONE',  ( 0.0000000000000000000, 1.000000000000000000, -3.055735000245584400E-020 ) ) ;
#158 = APPLICATION_CONTEXT ( 'automotive_design' ) ;
#159 = AXIS2_PLACEMENT_3D ( 'NONE', #27, #42, #179 ) ;
#160 = FACE_OUTER_BOUND ( 'NONE', #206, .T. ) ;
#161 = CIRCLE ( 'NONE', #67, 2.763520000000005100 ) ;
#162 =( LENGTH_UNIT ( ) NAMED_UNIT ( * ) SI_UNIT ( .MILLI., .METRE. ) );
#163 = DIRECTION ( 'NONE',  ( 0.0000000000000000000, -1.000000000000000000, 0.0000000000000000000 ) ) ;
#164 = CARTESIAN_POINT ( 'NONE',  ( 0.0000000000000000000, 6.465133857458710200E-036, 2.115737738036550800E-016 ) ) ;
#165 = VERTEX_POINT ( 'NONE', #113 ) ;
#166 = DIRECTION ( 'NONE',  ( 1.000000000000000000, 0.0000000000000000000, 0.0000000000000000000 ) ) ;
#167 = CONICAL_SURFACE ( 'NONE', #144, 2.763520000000005100, 0.7853981633974482800 ) ;
#168 = UNCERTAINTY_MEASURE_WITH_UNIT (LENGTH_MEASURE( 1.000000000000000100E-005 ), #162, 'distance_accuracy_value', 'NONE');
#169 = STYLED_ITEM ( 'NONE', ( #127 ), #2 ) ;
#170 = SHAPE_DEFINITION_REPRESENTATION ( #154, #55 ) ;
#171 = AXIS2_PLACEMENT_3D ( 'NONE', #109, #175, #157 ) ;
#172 = COLOUR_RGB ( '',0.7921568627450980000, 0.8196078431372548800, 0.9333333333333333500 ) ;
#173 = UNCERTAINTY_MEASURE_WITH_UNIT (LENGTH_MEASURE( 1.000000000000000100E-005 ), #92, 'distance_accuracy_value', 'NONE');
#174 = EDGE_CURVE ( 'NONE', #194, #165, #183, .T. ) ;
#175 = DIRECTION ( 'NONE',  ( 0.0000000000000000000, -3.055735000245584400E-020, -1.000000000000000000 ) ) ;
#176 = DIRECTION ( 'NONE',  ( 0.0000000000000000000, -3.055735000245584400E-020, -1.000000000000000000 ) ) ;
#177 = AXIS2_PLACEMENT_3D ( 'NONE', #112, #97, #180 ) ;
#178 = CARTESIAN_POINT ( 'NONE',  ( 4.230419902974625400E-016, 3.454400000000006800, -1.055573098484836700E-019 ) ) ;
#179 = DIRECTION ( 'NONE',  ( 0.0000000000000000000, -1.000000000000000000, 0.0000000000000000000 ) ) ;
#180 = DIRECTION ( 'NONE',  ( 0.0000000000000000000, 1.000000000000000000, 0.0000000000000000000 ) ) ;
#181 = LINE ( 'NONE', #22, #83 ) ;
#182 = AXIS2_PLACEMENT_3D ( 'NONE', #28, #96, #7 ) ;
#183 = LINE ( 'NONE', #178, #98 ) ;
#184 = AXIS2_PLACEMENT_3D ( 'NONE', #130, #193, #163 ) ;
#185 = ADVANCED_FACE ( 'NONE', ( #145 ), #105, .T. ) ;
#186 = VECTOR ( 'NONE', #11, 1000.000000000000000 ) ;
#187 = FILL_AREA_STYLE ('',( #111 ) ) ;
#188 = DIRECTION ( 'NONE',  ( -0.0000000000000000000, 3.055735000245584400E-020, 1.000000000000000000 ) ) ;
#189 = CARTESIAN_POINT ( 'NONE',  ( 0.0000000000000000000, 2.731198038660167200E-017, 893.7941406701384000 ) ) ;
#190 = CARTESIAN_POINT ( 'NONE',  ( 0.0000000000000000000, -3.245369615854172500E-018, -106.2058593298616400 ) ) ;
#191 = CONICAL_SURFACE ( 'NONE', #37, 2.763520000000005100, 0.7853981633974482800 ) ;
#192 = EDGE_CURVE ( 'NONE', #63, #125, #52, .T. ) ;
#193 = DIRECTION ( 'NONE',  ( -0.0000000000000000000, 3.055735000245584400E-020, 1.000000000000000000 ) ) ;
#194 = VERTEX_POINT ( 'NONE', #62 ) ;
#195 =( NAMED_UNIT ( * ) SI_UNIT ( $, .STERADIAN. ) SOLID_ANGLE_UNIT ( ) );
#196 = CARTESIAN_POINT ( 'NONE',  ( 0.0000000000000000000, 0.0000000000000000000, 0.0000000000000000000 ) ) ;
#197 = EDGE_LOOP ( 'NONE', ( #24, #82, #214, #30 ) ) ;
#198 = ORIENTED_EDGE ( 'NONE', *, *, #81, .T. ) ;
#199 = PRODUCT_DEFINITION_CONTEXT ( 'detailed design', #133, 'design' ) ;
#200 = ORIENTED_EDGE ( 'NONE', *, *, #149, .F. ) ;
#201 = EDGE_LOOP ( 'NONE', ( #141, #198, #1 ) ) ;
#202 =( GEOMETRIC_REPRESENTATION_CONTEXT ( 3 ) GLOBAL_UNCERTAINTY_ASSIGNED_CONTEXT ( ( #173 ) ) GLOBAL_UNIT_ASSIGNED_CONTEXT ( ( #92, #126, #106 ) ) REPRESENTATION_CONTEXT ( 'NONE', 'WORKASPACE' ) );
#203 = ORIENTED_EDGE ( 'NONE', *, *, #34, .T. ) ;
#204 = STYLED_ITEM ( 'NONE', ( #147 ), #55 ) ;
#205 = DIRECTION ( 'NONE',  ( 0.0000000000000000000, -1.000000000000000000, 0.0000000000000000000 ) ) ;
#206 = EDGE_LOOP ( 'NONE', ( #121, #60, #41, #21 ) ) ;
#207 = CARTESIAN_POINT ( 'NONE',  ( 0.0000000000000000000, 6.465133857458710200E-036, 2.115737738036550800E-016 ) ) ;
#208 = MECHANICAL_DESIGN_GEOMETRIC_PRESENTATION_REPRESENTATION (  '', ( #204 ), #4 ) ;
#209 = SURFACE_STYLE_USAGE ( .BOTH. , #8 ) ;
#210 = DIRECTION ( 'NONE',  ( -0.0000000000000000000, 3.055735000245584400E-020, 1.000000000000000000 ) ) ;
#211 = APPLICATION_PROTOCOL_DEFINITION ( 'draft international standard', 'automotive_design', 1998, #158 ) ;
#212 = ORIENTED_EDGE ( 'NONE', *, *, #174, .T. ) ;
#213 = CARTESIAN_POINT ( 'NONE',  ( 3.384335922379699400E-016, -2.763520000000005100, 2.116582196515338800E-016 ) ) ;
#214 = ORIENTED_EDGE ( 'NONE', *, *, #33, .F. ) ;
ENDSEC;
END-ISO-10303-21;
