ISO-10303-21;
HEADER;
FILE_DESCRIPTION (( 'STEP AP214' ),
    '1' );
FILE_NAME ('03-0267.STEP',
    '2020-07-23T06:06:58',
    ( '' ),
    ( '' ),
    'SwSTEP 2.0',
    'SolidWorks 2014',
    '' );
FILE_SCHEMA (( 'AUTOMOTIVE_DESIGN' ));
ENDSEC;

DATA;
#1 =( NAMED_UNIT ( * ) SI_UNIT ( $, .STERADIAN. ) SOLID_ANGLE_UNIT ( ) );
#2 = PRESENTATION_LAYER_ASSIGNMENT (  '', '', ( #206 ) ) ;
#3 =( LENGTH_UNIT ( ) NAMED_UNIT ( * ) SI_UNIT ( .MILLI., .METRE. ) );
#4 = UNCERTAINTY_MEASURE_WITH_UNIT (LENGTH_MEASURE( 1.000000000000000100E-005 ), #3, 'distance_accuracy_value', 'NONE');
#5 = CARTESIAN_POINT ( 'NONE',  ( 3.877366477248428400E-016, -2.814319999999995000, 2.153040107618218200E-016 ) ) ;
#6 = COLOUR_RGB ( '',0.7921568627450980000, 0.8196078431372548800, 0.9333333333333333500 ) ;
#7 = EDGE_LOOP ( 'NONE', ( #175, #66, #12, #38 ) ) ;
#8 = DIRECTION ( 'NONE',  ( -0.0000000000000000000, -2.301153752170360700E-020, 1.000000000000000000 ) ) ;
#9 = EDGE_CURVE ( 'NONE', #208, #115, #58, .T. ) ;
#10 = CONICAL_SURFACE ( 'NONE', #131, 2.814319999999995000, 0.7853981633974579400 ) ;
#11 = AXIS2_PLACEMENT_3D ( 'NONE', #143, #31, #72 ) ;
#12 = ORIENTED_EDGE ( 'NONE', *, *, #114, .T. ) ;
#13 = CARTESIAN_POINT ( 'NONE',  ( 3.446547979776373400E-016, -2.814319999999995000, 2.153040107618218200E-016 ) ) ;
#14 = LINE ( 'NONE', #70, #64 ) ;
#15 = ORIENTED_EDGE ( 'NONE', *, *, #9, .F. ) ;
#16 = CARTESIAN_POINT ( 'NONE',  ( 0.0000000000000000000, -3.517900000000012500, -104.7749999999999900 ) ) ;
#17 = MECHANICAL_DESIGN_GEOMETRIC_PRESENTATION_REPRESENTATION (  '', ( #206 ), #161 ) ;
#18 = DIRECTION ( 'NONE',  ( 0.0000000000000000000, 1.000000000000000000, 2.301153752170569300E-020 ) ) ;
#19 = ADVANCED_FACE ( 'NONE', ( #158 ), #209, .F. ) ;
#20 = LINE ( 'NONE', #194, #123 ) ;
#21 = EDGE_CURVE ( 'NONE', #37, #211, #20, .T. ) ;
#22 = DIRECTION ( 'NONE',  ( 0.0000000000000000000, -1.000000000000000000, 0.0000000000000000000 ) ) ;
#23 = DIRECTION ( 'NONE',  ( 0.0000000000000000000, 1.000000000000000000, 0.0000000000000000000 ) ) ;
#24 = CARTESIAN_POINT ( 'NONE',  ( 4.308184974720489200E-016, 3.517900000000012500, -104.7749999999999900 ) ) ;
#25 =( LENGTH_UNIT ( ) NAMED_UNIT ( * ) SI_UNIT ( .MILLI., .METRE. ) );
#26 = FACE_OUTER_BOUND ( 'NONE', #81, .T. ) ;
#27 = STYLED_ITEM ( 'NONE', ( #207 ), #117 ) ;
#28 = SURFACE_STYLE_FILL_AREA ( #183 ) ;
#29 = EDGE_CURVE ( 'NONE', #37, #101, #14, .T. ) ;
#30 = AXIS2_PLACEMENT_3D ( 'NONE', #148, #149, #18 ) ;
#31 = DIRECTION ( 'NONE',  ( 0.0000000000000000000, 2.301153752170360700E-020, -1.000000000000000000 ) ) ;
#32 = ORIENTED_EDGE ( 'NONE', *, *, #9, .T. ) ;
#33 = CARTESIAN_POINT ( 'NONE',  ( 4.308184974720482300E-016, 3.517900000000007100, 8.095228784760128400E-020 ) ) ;
#34 = DIRECTION ( 'NONE',  ( -0.0000000000000000000, -2.301153752170360700E-020, 1.000000000000000000 ) ) ;
#35 = ADVANCED_FACE ( 'NONE', ( #87 ), #10, .T. ) ;
#36 = PRODUCT_DEFINITION_CONTEXT ( 'detailed design', #174, 'design' ) ;
#37 = VERTEX_POINT ( 'NONE', #164 ) ;
#38 = ORIENTED_EDGE ( 'NONE', *, *, #147, .F. ) ;
#39 = PRODUCT_RELATED_PRODUCT_CATEGORY ( 'part', '', ( #54 ) ) ;
#40 =( NAMED_UNIT ( * ) PLANE_ANGLE_UNIT ( ) SI_UNIT ( $, .RADIAN. ) );
#41 = ORIENTED_EDGE ( 'NONE', *, *, #29, .F. ) ;
#42 = SURFACE_STYLE_USAGE ( .BOTH. , #136 ) ;
#43 = CARTESIAN_POINT ( 'NONE',  ( 0.0000000000000000000, 2.411033843836495200E-018, -104.7749999999999900 ) ) ;
#44 = FILL_AREA_STYLE_COLOUR ( '', #6 ) ;
#45 = AXIS2_PLACEMENT_3D ( 'NONE', #210, #165, #128 ) ;
#46 = EDGE_LOOP ( 'NONE', ( #138, #182, #168, #122 ) ) ;
#47 = DIRECTION ( 'NONE',  ( -0.0000000000000000000, -2.301153752170360700E-020, 1.000000000000000000 ) ) ;
#48 = EDGE_CURVE ( 'NONE', #115, #208, #108, .T. ) ;
#49 = DIRECTION ( 'NONE',  ( 1.000000000000000000, 0.0000000000000000000, 0.0000000000000000000 ) ) ;
#50 = AXIS2_PLACEMENT_3D ( 'NONE', #214, #8, #171 ) ;
#51 = ORIENTED_EDGE ( 'NONE', *, *, #135, .F. ) ;
#52 = EDGE_CURVE ( 'NONE', #211, #200, #144, .T. ) ;
#53 = ORIENTED_EDGE ( 'NONE', *, *, #147, .T. ) ;
#54 = PRODUCT ( '03-0267', '03-0267', '', ( #93 ) ) ;
#55 = DIRECTION ( 'NONE',  ( 0.0000000000000000000, 0.7071067811865543500, -0.7071067811865408000 ) ) ;
#56 = AXIS2_PLACEMENT_3D ( 'NONE', #77, #116, #118 ) ;
#57 = EDGE_CURVE ( 'NONE', #208, #200, #103, .T. ) ;
#58 = CIRCLE ( 'NONE', #60, 2.814319999999995000 ) ;
#59 = ORIENTED_EDGE ( 'NONE', *, *, #106, .F. ) ;
#60 = AXIS2_PLACEMENT_3D ( 'NONE', #113, #111, #127 ) ;
#61 = FILL_AREA_STYLE_COLOUR ( '', #193 ) ;
#62 = SURFACE_SIDE_STYLE ('',( #28 ) ) ;
#63 = CARTESIAN_POINT ( 'NONE',  ( 0.0000000000000000000, -4.955966591506358400E-036, 2.153687725920998900E-016 ) ) ;
#64 = VECTOR ( 'NONE', #176, 1000.000000000000000 ) ;
#65 = FACE_OUTER_BOUND ( 'NONE', #163, .T. ) ;
#66 = ORIENTED_EDGE ( 'NONE', *, *, #52, .T. ) ;
#67 = UNCERTAINTY_MEASURE_WITH_UNIT (LENGTH_MEASURE( 1.000000000000000100E-005 ), #76, 'distance_accuracy_value', 'NONE');
#68 = PRESENTATION_LAYER_ASSIGNMENT (  '', '', ( #27 ) ) ;
#69 = DIRECTION ( 'NONE',  ( 1.131426112287697800E-016, 0.9238795325112846300, 0.3826834323650950000 ) ) ;
#70 = CARTESIAN_POINT ( 'NONE',  ( 0.0000000000000000000, 2.444565379368102900E-018, -106.2321618910723400 ) ) ;
#71 =( GEOMETRIC_REPRESENTATION_CONTEXT ( 3 ) GLOBAL_UNCERTAINTY_ASSIGNED_CONTEXT ( ( #67 ) ) GLOBAL_UNIT_ASSIGNED_CONTEXT ( ( #76, #187, #1 ) ) REPRESENTATION_CONTEXT ( 'NONE', 'WORKASPACE' ) );
#72 = DIRECTION ( 'NONE',  ( 0.0000000000000000000, 1.000000000000000000, 2.301153752170360700E-020 ) ) ;
#73 = LINE ( 'NONE', #13, #178 ) ;
#74 = CARTESIAN_POINT ( 'NONE',  ( 0.0000000000000000000, -3.517900000000007100, -0.7035799999999981000 ) ) ;
#75 = CONICAL_SURFACE ( 'NONE', #50, 2414.213562373056900, 1.178097245096166900 ) ;
#76 =( LENGTH_UNIT ( ) NAMED_UNIT ( * ) SI_UNIT ( .MILLI., .METRE. ) );
#77 = CARTESIAN_POINT ( 'NONE',  ( 0.0000000000000000000, 2.411033843836495200E-018, -104.7749999999999900 ) ) ;
#78 = CARTESIAN_POINT ( 'NONE',  ( 0.0000000000000000000, 2.814319999999995000, 2.154335344223779900E-016 ) ) ;
#79 =( NAMED_UNIT ( * ) PLANE_ANGLE_UNIT ( ) SI_UNIT ( $, .RADIAN. ) );
#80 = SHAPE_DEFINITION_REPRESENTATION ( #83, #117 ) ;
#81 = EDGE_LOOP ( 'NONE', ( #59, #15, #179, #94 ) ) ;
#82 = MECHANICAL_DESIGN_GEOMETRIC_PRESENTATION_REPRESENTATION (  '', ( #27 ), #89 ) ;
#83 = PRODUCT_DEFINITION_SHAPE ( 'NONE', 'NONE',  #159 ) ;
#84 = AXIS2_PLACEMENT_3D ( 'NONE', #140, #141, #49 ) ;
#85 = UNCERTAINTY_MEASURE_WITH_UNIT (LENGTH_MEASURE( 1.000000000000000100E-005 ), #25, 'distance_accuracy_value', 'NONE');
#86 = CARTESIAN_POINT ( 'NONE',  ( 0.0000000000000000000, 2.814319999999995000, 2.154335344223779900E-016 ) ) ;
#87 = FACE_OUTER_BOUND ( 'NONE', #46, .T. ) ;
#88 = ORIENTED_EDGE ( 'NONE', *, *, #21, .F. ) ;
#89 =( GEOMETRIC_REPRESENTATION_CONTEXT ( 3 ) GLOBAL_UNCERTAINTY_ASSIGNED_CONTEXT ( ( #85 ) ) GLOBAL_UNIT_ASSIGNED_CONTEXT ( ( #25, #79, #157 ) ) REPRESENTATION_CONTEXT ( 'NONE', 'WORKASPACE' ) );
#90 = CARTESIAN_POINT ( 'NONE',  ( 0.0000000000000000000, -3.517900000000007100, -8.095228784760128400E-020 ) ) ;
#91 = CIRCLE ( 'NONE', #120, 3.517900000000013300 ) ;
#92 = DIRECTION ( 'NONE',  ( 0.0000000000000000000, -1.000000000000000000, -2.301153752170360700E-020 ) ) ;
#93 = PRODUCT_CONTEXT ( 'NONE', #198, 'mechanical' ) ;
#94 = ORIENTED_EDGE ( 'NONE', *, *, #197, .F. ) ;
#95 = ORIENTED_EDGE ( 'NONE', *, *, #121, .T. ) ;
#96 = LINE ( 'NONE', #90, #186 ) ;
#97 = VERTEX_POINT ( 'NONE', #74 ) ;
#98 = FACE_OUTER_BOUND ( 'NONE', #139, .T. ) ;
#99 = ADVANCED_FACE ( 'NONE', ( #65 ), #132, .T. ) ;
#100 = VECTOR ( 'NONE', #34, 1000.000000000000000 ) ;
#101 = VERTEX_POINT ( 'NONE', #16 ) ;
#102 = DIRECTION ( 'NONE',  ( -0.0000000000000000000, -2.301153752170360700E-020, 1.000000000000000000 ) ) ;
#103 = LINE ( 'NONE', #86, #166 ) ;
#104 = DIRECTION ( 'NONE',  ( 0.0000000000000000000, 2.301153752170361000E-020, -1.000000000000000000 ) ) ;
#105 = CIRCLE ( 'NONE', #145, 3.517900000000007100 ) ;
#106 = EDGE_CURVE ( 'NONE', #115, #97, #73, .T. ) ;
#107 = ORIENTED_EDGE ( 'NONE', *, *, #121, .F. ) ;
#108 = CIRCLE ( 'NONE', #30, 2.814319999999995000 ) ;
#109 = PRESENTATION_STYLE_ASSIGNMENT (( #153 ) ) ;
#110 = DIRECTION ( 'NONE',  ( 0.0000000000000000000, 2.301153752170361000E-020, -1.000000000000000000 ) ) ;
#111 = DIRECTION ( 'NONE',  ( -0.0000000000000000000, -2.301153752170360700E-020, 1.000000000000000000 ) ) ;
#112 = CIRCLE ( 'NONE', #56, 3.517900000000013300 ) ;
#113 = CARTESIAN_POINT ( 'NONE',  ( 0.0000000000000000000, -4.955966591506357700E-036, 2.153687725920998900E-016 ) ) ;
#114 = EDGE_CURVE ( 'NONE', #200, #97, #181, .T. ) ;
#115 = VERTEX_POINT ( 'NONE', #5 ) ;
#116 = DIRECTION ( 'NONE',  ( -0.0000000000000000000, -2.301153752170360700E-020, 1.000000000000000000 ) ) ;
#117 = ADVANCED_BREP_SHAPE_REPRESENTATION ( '03-0267', ( #160, #84 ), #71 ) ;
#118 = DIRECTION ( 'NONE',  ( 0.0000000000000000000, -1.000000000000000000, 0.0000000000000000000 ) ) ;
#119 = FACE_OUTER_BOUND ( 'NONE', #146, .T. ) ;
#120 = AXIS2_PLACEMENT_3D ( 'NONE', #43, #201, #188 ) ;
#121 = EDGE_CURVE ( 'NONE', #211, #101, #91, .T. ) ;
#122 = ORIENTED_EDGE ( 'NONE', *, *, #57, .F. ) ;
#123 = VECTOR ( 'NONE', #69, 1000.000000000000000 ) ;
#124 = CLOSED_SHELL ( 'NONE', ( #35, #130, #212, #19, #180, #99, #150 ) ) ;
#125 = DIRECTION ( 'NONE',  ( 0.0000000000000000000, 1.000000000000000000, 2.301153752170569300E-020 ) ) ;
#126 = AXIS2_PLACEMENT_3D ( 'NONE', #155, #102, #92 ) ;
#127 = DIRECTION ( 'NONE',  ( 0.0000000000000000000, 1.000000000000000000, 2.301153752170569300E-020 ) ) ;
#128 = DIRECTION ( 'NONE',  ( 0.0000000000000000000, -1.000000000000000000, -2.301153752170360700E-020 ) ) ;
#129 = ORIENTED_EDGE ( 'NONE', *, *, #52, .F. ) ;
#130 = ADVANCED_FACE ( 'NONE', ( #205 ), #142, .T. ) ;
#131 = AXIS2_PLACEMENT_3D ( 'NONE', #162, #110, #125 ) ;
#132 = CYLINDRICAL_SURFACE ( 'NONE', #45, 3.517900000000007100 ) ;
#133 = ORIENTED_EDGE ( 'NONE', *, *, #197, .T. ) ;
#134 = DIRECTION ( 'NONE',  ( 0.0000000000000000000, 2.301153752170361000E-020, -1.000000000000000000 ) ) ;
#135 = EDGE_CURVE ( 'NONE', #101, #211, #112, .T. ) ;
#136 = SURFACE_SIDE_STYLE ('',( #154 ) ) ;
#137 = CARTESIAN_POINT ( 'NONE',  ( 0.0000000000000000000, 1.619045756952018200E-020, -0.7035799999999981000 ) ) ;
#138 = ORIENTED_EDGE ( 'NONE', *, *, #48, .F. ) ;
#139 = EDGE_LOOP ( 'NONE', ( #88, #196, #107 ) ) ;
#140 = CARTESIAN_POINT ( 'NONE',  ( 0.0000000000000000000, 0.0000000000000000000, 0.0000000000000000000 ) ) ;
#141 = DIRECTION ( 'NONE',  ( 0.0000000000000000000, 0.0000000000000000000, 1.000000000000000000 ) ) ;
#142 = CYLINDRICAL_SURFACE ( 'NONE', #126, 3.517900000000007100 ) ;
#143 = CARTESIAN_POINT ( 'NONE',  ( 0.0000000000000000000, 3.517900000000000000, 2.154497248799474800E-016 ) ) ;
#144 = LINE ( 'NONE', #33, #100 ) ;
#145 = AXIS2_PLACEMENT_3D ( 'NONE', #156, #104, #23 ) ;
#146 = EDGE_LOOP ( 'NONE', ( #41, #173, #51 ) ) ;
#147 = EDGE_CURVE ( 'NONE', #101, #97, #96, .T. ) ;
#148 = CARTESIAN_POINT ( 'NONE',  ( 0.0000000000000000000, -4.955966591506357700E-036, 2.153687725920998900E-016 ) ) ;
#149 = DIRECTION ( 'NONE',  ( -0.0000000000000000000, -2.301153752170360700E-020, 1.000000000000000000 ) ) ;
#150 = ADVANCED_FACE ( 'NONE', ( #26 ), #195, .T. ) ;
#151 = AXIS2_PLACEMENT_3D ( 'NONE', #137, #134, #167 ) ;
#152 = APPLICATION_PROTOCOL_DEFINITION ( 'draft international standard', 'automotive_design', 1998, #198 ) ;
#153 = SURFACE_STYLE_USAGE ( .BOTH. , #62 ) ;
#154 = SURFACE_STYLE_FILL_AREA ( #169 ) ;
#155 = CARTESIAN_POINT ( 'NONE',  ( 0.0000000000000000000, 0.0000000000000000000, 0.0000000000000000000 ) ) ;
#156 = CARTESIAN_POINT ( 'NONE',  ( 0.0000000000000000000, 1.619045756952018200E-020, -0.7035799999999981000 ) ) ;
#157 =( NAMED_UNIT ( * ) SI_UNIT ( $, .STERADIAN. ) SOLID_ANGLE_UNIT ( ) );
#158 = FACE_OUTER_BOUND ( 'NONE', #189, .T. ) ;
#159 = PRODUCT_DEFINITION ( 'UNKNOWN', '', #184, #36 ) ;
#160 = MANIFOLD_SOLID_BREP ( '¸ðµû±â1', #124 ) ;
#161 =( GEOMETRIC_REPRESENTATION_CONTEXT ( 3 ) GLOBAL_UNCERTAINTY_ASSIGNED_CONTEXT ( ( #4 ) ) GLOBAL_UNIT_ASSIGNED_CONTEXT ( ( #3, #40, #170 ) ) REPRESENTATION_CONTEXT ( 'NONE', 'WORKASPACE' ) );
#162 = CARTESIAN_POINT ( 'NONE',  ( 0.0000000000000000000, -4.955966591506358400E-036, 2.153687725920998900E-016 ) ) ;
#163 = EDGE_LOOP ( 'NONE', ( #129, #95, #53, #133 ) ) ;
#164 = CARTESIAN_POINT ( 'NONE',  ( 0.0000000000000000000, 2.444565379368102900E-018, -106.2321618910723400 ) ) ;
#165 = DIRECTION ( 'NONE',  ( -0.0000000000000000000, -2.301153752170360700E-020, 1.000000000000000000 ) ) ;
#166 = VECTOR ( 'NONE', #55, 1000.000000000000100 ) ;
#167 = DIRECTION ( 'NONE',  ( 0.0000000000000000000, 1.000000000000000000, 0.0000000000000000000 ) ) ;
#168 = ORIENTED_EDGE ( 'NONE', *, *, #114, .F. ) ;
#169 = FILL_AREA_STYLE ('',( #61 ) ) ;
#170 =( NAMED_UNIT ( * ) SI_UNIT ( $, .STERADIAN. ) SOLID_ANGLE_UNIT ( ) );
#171 = DIRECTION ( 'NONE',  ( 0.0000000000000000000, -1.000000000000000000, 0.0000000000000000000 ) ) ;
#172 = CARTESIAN_POINT ( 'NONE',  ( 4.308184974720482300E-016, 3.517900000000007100, -0.7035799999999981000 ) ) ;
#173 = ORIENTED_EDGE ( 'NONE', *, *, #21, .T. ) ;
#174 = APPLICATION_CONTEXT ( 'automotive_design' ) ;
#175 = ORIENTED_EDGE ( 'NONE', *, *, #135, .T. ) ;
#176 = DIRECTION ( 'NONE',  ( 0.0000000000000000000, -0.9238795325112846300, 0.3826834323650950000 ) ) ;
#177 = AXIS2_PLACEMENT_3D ( 'NONE', #63, #203, #185 ) ;
#178 = VECTOR ( 'NONE', #191, 1000.000000000000100 ) ;
#179 = ORIENTED_EDGE ( 'NONE', *, *, #57, .T. ) ;
#180 = ADVANCED_FACE ( 'NONE', ( #98 ), #75, .T. ) ;
#181 = CIRCLE ( 'NONE', #151, 3.517900000000007100 ) ;
#182 = ORIENTED_EDGE ( 'NONE', *, *, #106, .T. ) ;
#183 = FILL_AREA_STYLE ('',( #44 ) ) ;
#184 = PRODUCT_DEFINITION_FORMATION_WITH_SPECIFIED_SOURCE ( 'ANY', '', #54, .NOT_KNOWN. ) ;
#185 = DIRECTION ( 'NONE',  ( 0.0000000000000000000, 1.000000000000000000, 2.301153752170569300E-020 ) ) ;
#186 = VECTOR ( 'NONE', #202, 1000.000000000000000 ) ;
#187 =( NAMED_UNIT ( * ) PLANE_ANGLE_UNIT ( ) SI_UNIT ( $, .RADIAN. ) );
#188 = DIRECTION ( 'NONE',  ( 0.0000000000000000000, -1.000000000000000000, 0.0000000000000000000 ) ) ;
#189 = EDGE_LOOP ( 'NONE', ( #32, #190 ) ) ;
#190 = ORIENTED_EDGE ( 'NONE', *, *, #48, .T. ) ;
#191 = DIRECTION ( 'NONE',  ( 8.659560562355016700E-017, -0.7071067811865543500, -0.7071067811865408000 ) ) ;
#192 = CONICAL_SURFACE ( 'NONE', #213, 2414.213562373056900, 1.178097245096166900 ) ;
#193 = COLOUR_RGB ( '',0.7921568627450980000, 0.8196078431372548800, 0.9333333333333333500 ) ;
#194 = CARTESIAN_POINT ( 'NONE',  ( 0.0000000000000000000, 2.444565379368102900E-018, -106.2321618910723400 ) ) ;
#195 = CONICAL_SURFACE ( 'NONE', #177, 2.814319999999995000, 0.7853981633974579400 ) ;
#196 = ORIENTED_EDGE ( 'NONE', *, *, #29, .T. ) ;
#197 = EDGE_CURVE ( 'NONE', #97, #200, #105, .T. ) ;
#198 = APPLICATION_CONTEXT ( 'automotive_design' ) ;
#199 = CARTESIAN_POINT ( 'NONE',  ( 0.0000000000000000000, -2.056697214233550400E-017, 893.7678381089276600 ) ) ;
#200 = VERTEX_POINT ( 'NONE', #172 ) ;
#201 = DIRECTION ( 'NONE',  ( -0.0000000000000000000, -2.301153752170360700E-020, 1.000000000000000000 ) ) ;
#202 = DIRECTION ( 'NONE',  ( -0.0000000000000000000, -2.301153752170360700E-020, 1.000000000000000000 ) ) ;
#203 = DIRECTION ( 'NONE',  ( 0.0000000000000000000, 2.301153752170361000E-020, -1.000000000000000000 ) ) ;
#204 = APPLICATION_PROTOCOL_DEFINITION ( 'draft international standard', 'automotive_design', 1998, #174 ) ;
#205 = FACE_OUTER_BOUND ( 'NONE', #7, .T. ) ;
#206 = STYLED_ITEM ( 'NONE', ( #109 ), #160 ) ;
#207 = PRESENTATION_STYLE_ASSIGNMENT (( #42 ) ) ;
#208 = VERTEX_POINT ( 'NONE', #78 ) ;
#209 = PLANE ( 'NONE',  #11 ) ;
#210 = CARTESIAN_POINT ( 'NONE',  ( 0.0000000000000000000, 0.0000000000000000000, 0.0000000000000000000 ) ) ;
#211 = VERTEX_POINT ( 'NONE', #24 ) ;
#212 = ADVANCED_FACE ( 'NONE', ( #119 ), #192, .T. ) ;
#213 = AXIS2_PLACEMENT_3D ( 'NONE', #199, #47, #22 ) ;
#214 = CARTESIAN_POINT ( 'NONE',  ( 0.0000000000000000000, -2.056697214233550400E-017, 893.7678381089276600 ) ) ;
ENDSEC;
END-ISO-10303-21;
