ISO-10303-21;
HEADER;
FILE_DESCRIPTION (( 'STEP AP214' ),
    '1' );
FILE_NAME ('03-0268.STEP',
    '2020-07-23T06:07:39',
    ( '' ),
    ( '' ),
    'SwSTEP 2.0',
    'SolidWorks 2014',
    '' );
FILE_SCHEMA (( 'AUTOMOTIVE_DESIGN' ));
ENDSEC;

DATA;
#1 =( GEOMETRIC_REPRESENTATION_CONTEXT ( 3 ) GLOBAL_UNCERTAINTY_ASSIGNED_CONTEXT ( ( #57 ) ) GLOBAL_UNIT_ASSIGNED_CONTEXT ( ( #34, #100, #153 ) ) REPRESENTATION_CONTEXT ( 'NONE', 'WORKASPACE' ) );
#2 = EDGE_LOOP ( 'NONE', ( #186, #192, #79, #152 ) ) ;
#3 = FACE_OUTER_BOUND ( 'NONE', #116, .T. ) ;
#4 = DIRECTION ( 'NONE',  ( -0.0000000000000000000, -2.460219106378761900E-020, 1.000000000000000000 ) ) ;
#5 = DIRECTION ( 'NONE',  ( 0.0000000000000000000, 1.000000000000000000, 2.460219106379510000E-020 ) ) ;
#6 = DIRECTION ( 'NONE',  ( -0.0000000000000000000, -2.460219106378761900E-020, 1.000000000000000000 ) ) ;
#7 = VECTOR ( 'NONE', #106, 1000.000000000000100 ) ;
#8 = APPLICATION_CONTEXT ( 'automotive_design' ) ;
#9 = LINE ( 'NONE', #45, #68 ) ;
#10 = EDGE_CURVE ( 'NONE', #47, #179, #96, .T. ) ;
#11 = CYLINDRICAL_SURFACE ( 'NONE', #118, 3.568700000000007300 ) ;
#12 = ORIENTED_EDGE ( 'NONE', *, *, #173, .T. ) ;
#13 = CARTESIAN_POINT ( 'NONE',  ( 3.496317625693714400E-016, -2.854959999999989500, 2.184057144148338400E-016 ) ) ;
#14 = LINE ( 'NONE', #210, #27 ) ;
#15 = STYLED_ITEM ( 'NONE', ( #42 ), #170 ) ;
#16 = PRODUCT_DEFINITION_CONTEXT ( 'detailed design', #8, 'design' ) ;
#17 = CARTESIAN_POINT ( 'NONE',  ( 0.0000000000000000000, 1.755956784986820900E-020, -0.7137400000000175800 ) ) ;
#18 = ORIENTED_EDGE ( 'NONE', *, *, #130, .F. ) ;
#19 = DIRECTION ( 'NONE',  ( 0.0000000000000000000, -1.000000000000000000, 0.0000000000000000000 ) ) ;
#20 = EDGE_CURVE ( 'NONE', #179, #174, #138, .T. ) ;
#21 = FILL_AREA_STYLE ('',( #82 ) ) ;
#22 = EDGE_CURVE ( 'NONE', #190, #174, #9, .T. ) ;
#23 = AXIS2_PLACEMENT_3D ( 'NONE', #200, #163, #183 ) ;
#24 = ORIENTED_EDGE ( 'NONE', *, *, #167, .T. ) ;
#25 = DIRECTION ( 'NONE',  ( 0.0000000000000000000, 1.000000000000000000, 2.460219106378761900E-020 ) ) ;
#26 =( GEOMETRIC_REPRESENTATION_CONTEXT ( 3 ) GLOBAL_UNCERTAINTY_ASSIGNED_CONTEXT ( ( #124 ) ) GLOBAL_UNIT_ASSIGNED_CONTEXT ( ( #132, #84, #81 ) ) REPRESENTATION_CONTEXT ( 'NONE', 'WORKASPACE' ) );
#27 = VECTOR ( 'NONE', #120, 1000.000000000000100 ) ;
#28 = CARTESIAN_POINT ( 'NONE',  ( 0.0000000000000000000, -2.191001748268761700E-017, 890.5717960599590700 ) ) ;
#29 = EDGE_LOOP ( 'NONE', ( #52, #201, #85, #33 ) ) ;
#30 = AXIS2_PLACEMENT_3D ( 'NONE', #28, #74, #158 ) ;
#31 = DIRECTION ( 'NONE',  ( 0.0000000000000000000, 2.460219106378761900E-020, -1.000000000000000000 ) ) ;
#32 = EDGE_CURVE ( 'NONE', #197, #174, #14, .T. ) ;
#33 = ORIENTED_EDGE ( 'NONE', *, *, #32, .F. ) ;
#34 =( LENGTH_UNIT ( ) NAMED_UNIT ( * ) SI_UNIT ( .MILLI., .METRE. ) );
#35 = DIRECTION ( 'NONE',  ( 0.0000000000000000000, 2.460219106378761900E-020, -1.000000000000000000 ) ) ;
#36 = DIRECTION ( 'NONE',  ( 0.0000000000000000000, -1.000000000000000000, -2.460219106378761600E-020 ) ) ;
#37 = AXIS2_PLACEMENT_3D ( 'NONE', #199, #185, #5 ) ;
#38 = SURFACE_SIDE_STYLE ('',( #88 ) ) ;
#39 = FACE_OUTER_BOUND ( 'NONE', #144, .T. ) ;
#40 = FACE_OUTER_BOUND ( 'NONE', #62, .T. ) ;
#41 = ADVANCED_FACE ( 'NONE', ( #40 ), #131, .T. ) ;
#42 = PRESENTATION_STYLE_ASSIGNMENT (( #129 ) ) ;
#43 = PRODUCT_DEFINITION_SHAPE ( 'NONE', 'NONE',  #211 ) ;
#44 = CYLINDRICAL_SURFACE ( 'NONE', #176, 3.568700000000007300 ) ;
#45 = CARTESIAN_POINT ( 'NONE',  ( 4.370397032117167700E-016, 3.568700000000007300, 8.779783924933905000E-020 ) ) ;
#46 = FACE_OUTER_BOUND ( 'NONE', #177, .T. ) ;
#47 = VERTEX_POINT ( 'NONE', #206 ) ;
#48 = DIRECTION ( 'NONE',  ( -0.0000000000000000000, -2.460219106378761900E-020, 1.000000000000000000 ) ) ;
#49 = FILL_AREA_STYLE ('',( #151 ) ) ;
#50 = DIRECTION ( 'NONE',  ( -0.0000000000000000000, -2.460219106378761900E-020, 1.000000000000000000 ) ) ;
#51 = CONICAL_SURFACE ( 'NONE', #161, 2.854959999999989500, 0.7853981633974482800 ) ;
#52 = ORIENTED_EDGE ( 'NONE', *, *, #139, .F. ) ;
#53 = EDGE_CURVE ( 'NONE', #174, #179, #162, .T. ) ;
#54 = APPLICATION_PROTOCOL_DEFINITION ( 'draft international standard', 'automotive_design', 1998, #8 ) ;
#55 = ADVANCED_FACE ( 'NONE', ( #184 ), #172, .T. ) ;
#56 = EDGE_LOOP ( 'NONE', ( #193, #145, #18 ) ) ;
#57 = UNCERTAINTY_MEASURE_WITH_UNIT (LENGTH_MEASURE( 1.000000000000000100E-005 ), #34, 'distance_accuracy_value', 'NONE');
#58 = PRODUCT_DEFINITION_FORMATION_WITH_SPECIFIED_SOURCE ( 'ANY', '', #212, .NOT_KNOWN. ) ;
#59 = CIRCLE ( 'NONE', #203, 3.568700000000013100 ) ;
#60 = CARTESIAN_POINT ( 'NONE',  ( 0.0000000000000000000, 1.755956784986820900E-020, -0.7137400000000175800 ) ) ;
#61 = COLOUR_RGB ( '',0.7921568627450980000, 0.8196078431372548800, 0.9333333333333333500 ) ;
#62 = EDGE_LOOP ( 'NONE', ( #121, #24, #92 ) ) ;
#63 = CARTESIAN_POINT ( 'NONE',  ( 0.0000000000000000000, -5.374987130829736100E-036, 2.184759526862333400E-016 ) ) ;
#64 = AXIS2_PLACEMENT_3D ( 'NONE', #180, #113, #19 ) ;
#65 = CARTESIAN_POINT ( 'NONE',  ( 0.0000000000000000000, -3.568700000000007300, -8.779783924933905000E-020 ) ) ;
#66 = DIRECTION ( 'NONE',  ( 0.0000000000000000000, 1.000000000000000000, 2.460219106379510000E-020 ) ) ;
#67 = CARTESIAN_POINT ( 'NONE',  ( 0.0000000000000000000, 2.854959999999989500, 2.185461909576328300E-016 ) ) ;
#68 = VECTOR ( 'NONE', #91, 1000.000000000000000 ) ;
#69 = CARTESIAN_POINT ( 'NONE',  ( 0.0000000000000000000, 0.0000000000000000000, 0.0000000000000000000 ) ) ;
#70 = SURFACE_STYLE_USAGE ( .BOTH. , #103 ) ;
#71 = CLOSED_SHELL ( 'NONE', ( #72, #189, #55, #87, #41, #205, #117 ) ) ;
#72 = ADVANCED_FACE ( 'NONE', ( #73 ), #51, .T. ) ;
#73 = FACE_OUTER_BOUND ( 'NONE', #29, .T. ) ;
#74 = DIRECTION ( 'NONE',  ( -0.0000000000000000000, -2.460219106378761900E-020, 1.000000000000000000 ) ) ;
#75 = VERTEX_POINT ( 'NONE', #80 ) ;
#76 = AXIS2_PLACEMENT_3D ( 'NONE', #109, #147, #214 ) ;
#77 = PRESENTATION_STYLE_ASSIGNMENT (( #70 ) ) ;
#78 = LINE ( 'NONE', #65, #89 ) ;
#79 = ORIENTED_EDGE ( 'NONE', *, *, #53, .T. ) ;
#80 = CARTESIAN_POINT ( 'NONE',  ( 0.0000000000000000000, -3.568700000000014000, -107.9499999999999900 ) ) ;
#81 =( NAMED_UNIT ( * ) SI_UNIT ( $, .STERADIAN. ) SOLID_ANGLE_UNIT ( ) );
#82 = FILL_AREA_STYLE_COLOUR ( '', #61 ) ;
#83 = APPLICATION_CONTEXT ( 'automotive_design' ) ;
#84 =( NAMED_UNIT ( * ) PLANE_ANGLE_UNIT ( ) SI_UNIT ( $, .RADIAN. ) );
#85 = ORIENTED_EDGE ( 'NONE', *, *, #53, .F. ) ;
#86 = PRESENTATION_LAYER_ASSIGNMENT (  '', '', ( #15 ) ) ;
#87 = ADVANCED_FACE ( 'NONE', ( #39 ), #204, .F. ) ;
#88 = SURFACE_STYLE_FILL_AREA ( #21 ) ;
#89 = VECTOR ( 'NONE', #6, 1000.000000000000000 ) ;
#90 = ORIENTED_EDGE ( 'NONE', *, *, #10, .F. ) ;
#91 = DIRECTION ( 'NONE',  ( -0.0000000000000000000, -2.460219106378761900E-020, 1.000000000000000000 ) ) ;
#92 = ORIENTED_EDGE ( 'NONE', *, *, #194, .F. ) ;
#93 = AXIS2_PLACEMENT_3D ( 'NONE', #128, #35, #25 ) ;
#94 = FACE_OUTER_BOUND ( 'NONE', #2, .T. ) ;
#95 = EDGE_CURVE ( 'NONE', #149, #190, #191, .T. ) ;
#96 = LINE ( 'NONE', #13, #7 ) ;
#97 = CARTESIAN_POINT ( 'NONE',  ( 0.0000000000000000000, 2.692173581100002500E-018, -109.4282039400408700 ) ) ;
#98 = STYLED_ITEM ( 'NONE', ( #77 ), #136 ) ;
#99 = APPLICATION_PROTOCOL_DEFINITION ( 'draft international standard', 'automotive_design', 1998, #83 ) ;
#100 =( NAMED_UNIT ( * ) PLANE_ANGLE_UNIT ( ) SI_UNIT ( $, .RADIAN. ) );
#101 = LINE ( 'NONE', #97, #115 ) ;
#102 = ORIENTED_EDGE ( 'NONE', *, *, #22, .F. ) ;
#103 = SURFACE_SIDE_STYLE ('',( #119 ) ) ;
#104 = CARTESIAN_POINT ( 'NONE',  ( 0.0000000000000000000, 2.655806525335873100E-018, -107.9499999999999900 ) ) ;
#105 = AXIS2_PLACEMENT_3D ( 'NONE', #168, #150, #66 ) ;
#106 = DIRECTION ( 'NONE',  ( 8.659560562354932900E-017, -0.7071067811865474600, -0.7071067811865474600 ) ) ;
#107 = MECHANICAL_DESIGN_GEOMETRIC_PRESENTATION_REPRESENTATION (  '', ( #15 ), #26 ) ;
#108 = ORIENTED_EDGE ( 'NONE', *, *, #194, .T. ) ;
#109 = CARTESIAN_POINT ( 'NONE',  ( 0.0000000000000000000, -2.191001748268761700E-017, 890.5717960599590700 ) ) ;
#110 = ORIENTED_EDGE ( 'NONE', *, *, #173, .F. ) ;
#111 = EDGE_CURVE ( 'NONE', #75, #179, #78, .T. ) ;
#112 = CARTESIAN_POINT ( 'NONE',  ( 4.370397032117176600E-016, 3.568700000000014000, -107.9499999999999900 ) ) ;
#113 = DIRECTION ( 'NONE',  ( -0.0000000000000000000, -2.460219106378761900E-020, 1.000000000000000000 ) ) ;
#114 =( NAMED_UNIT ( * ) PLANE_ANGLE_UNIT ( ) SI_UNIT ( $, .RADIAN. ) );
#115 = VECTOR ( 'NONE', #125, 1000.000000000000100 ) ;
#116 = EDGE_LOOP ( 'NONE', ( #102, #108, #123, #157 ) ) ;
#117 = ADVANCED_FACE ( 'NONE', ( #46 ), #196, .T. ) ;
#118 = AXIS2_PLACEMENT_3D ( 'NONE', #166, #48, #154 ) ;
#119 = SURFACE_STYLE_FILL_AREA ( #49 ) ;
#120 = DIRECTION ( 'NONE',  ( 0.0000000000000000000, 0.7071067811865474600, -0.7071067811865474600 ) ) ;
#121 = ORIENTED_EDGE ( 'NONE', *, *, #95, .F. ) ;
#122 = DIRECTION ( 'NONE',  ( 0.0000000000000000000, 2.460219106378761900E-020, -1.000000000000000000 ) ) ;
#123 = ORIENTED_EDGE ( 'NONE', *, *, #111, .T. ) ;
#124 = UNCERTAINTY_MEASURE_WITH_UNIT (LENGTH_MEASURE( 1.000000000000000100E-005 ), #132, 'distance_accuracy_value', 'NONE');
#125 = DIRECTION ( 'NONE',  ( 0.0000000000000000000, -0.9238795325112848500, 0.3826834323650940600 ) ) ;
#126 = CIRCLE ( 'NONE', #23, 2.854959999999989500 ) ;
#127 = CARTESIAN_POINT ( 'NONE',  ( 4.370397032117167700E-016, 3.568700000000007300, -0.7137400000000175800 ) ) ;
#128 = CARTESIAN_POINT ( 'NONE',  ( 0.0000000000000000000, 3.568700000000000600, 2.185637505254826700E-016 ) ) ;
#129 = SURFACE_STYLE_USAGE ( .BOTH. , #38 ) ;
#130 = EDGE_CURVE ( 'NONE', #75, #190, #208, .T. ) ;
#131 = CONICAL_SURFACE ( 'NONE', #30, 2414.213562373062800, 1.178097245096167800 ) ;
#132 =( LENGTH_UNIT ( ) NAMED_UNIT ( * ) SI_UNIT ( .MILLI., .METRE. ) );
#133 = ORIENTED_EDGE ( 'NONE', *, *, #139, .T. ) ;
#134 = DIRECTION ( 'NONE',  ( 1.000000000000000000, 0.0000000000000000000, 0.0000000000000000000 ) ) ;
#135 = PRODUCT_CONTEXT ( 'NONE', #83, 'mechanical' ) ;
#136 = ADVANCED_BREP_SHAPE_REPRESENTATION ( '03-0268', ( #170, #175 ), #1 ) ;
#137 = PRODUCT_RELATED_PRODUCT_CATEGORY ( 'part', '', ( #212 ) ) ;
#138 = CIRCLE ( 'NONE', #207, 3.568700000000007300 ) ;
#139 = EDGE_CURVE ( 'NONE', #47, #197, #126, .T. ) ;
#140 = DIRECTION ( 'NONE',  ( 1.131426112287698000E-016, 0.9238795325112848500, 0.3826834323650940600 ) ) ;
#141 = CIRCLE ( 'NONE', #37, 2.854959999999989500 ) ;
#142 = MECHANICAL_DESIGN_GEOMETRIC_PRESENTATION_REPRESENTATION (  '', ( #98 ), #171 ) ;
#143 = DIRECTION ( 'NONE',  ( 0.0000000000000000000, 1.000000000000000000, 0.0000000000000000000 ) ) ;
#144 = EDGE_LOOP ( 'NONE', ( #12, #133 ) ) ;
#145 = ORIENTED_EDGE ( 'NONE', *, *, #95, .T. ) ;
#146 = AXIS2_PLACEMENT_3D ( 'NONE', #17, #31, #148 ) ;
#147 = DIRECTION ( 'NONE',  ( -0.0000000000000000000, -2.460219106378761900E-020, 1.000000000000000000 ) ) ;
#148 = DIRECTION ( 'NONE',  ( 0.0000000000000000000, 1.000000000000000000, 0.0000000000000000000 ) ) ;
#149 = VERTEX_POINT ( 'NONE', #182 ) ;
#150 = DIRECTION ( 'NONE',  ( 0.0000000000000000000, 2.460219106378761900E-020, -1.000000000000000000 ) ) ;
#151 = FILL_AREA_STYLE_COLOUR ( '', #213 ) ;
#152 = ORIENTED_EDGE ( 'NONE', *, *, #111, .F. ) ;
#153 =( NAMED_UNIT ( * ) SI_UNIT ( $, .STERADIAN. ) SOLID_ANGLE_UNIT ( ) );
#154 = DIRECTION ( 'NONE',  ( 0.0000000000000000000, -1.000000000000000000, -2.460219106378761600E-020 ) ) ;
#155 = DIRECTION ( 'NONE',  ( 0.0000000000000000000, 0.0000000000000000000, 1.000000000000000000 ) ) ;
#156 = ORIENTED_EDGE ( 'NONE', *, *, #32, .T. ) ;
#157 = ORIENTED_EDGE ( 'NONE', *, *, #20, .T. ) ;
#158 = DIRECTION ( 'NONE',  ( 0.0000000000000000000, -1.000000000000000000, 0.0000000000000000000 ) ) ;
#159 = PRESENTATION_LAYER_ASSIGNMENT (  '', '', ( #98 ) ) ;
#160 = VECTOR ( 'NONE', #140, 1000.000000000000100 ) ;
#161 = AXIS2_PLACEMENT_3D ( 'NONE', #63, #178, #198 ) ;
#162 = CIRCLE ( 'NONE', #146, 3.568700000000007300 ) ;
#163 = DIRECTION ( 'NONE',  ( -0.0000000000000000000, -2.460219106378761900E-020, 1.000000000000000000 ) ) ;
#164 = DIRECTION ( 'NONE',  ( 0.0000000000000000000, -1.000000000000000000, 0.0000000000000000000 ) ) ;
#165 = UNCERTAINTY_MEASURE_WITH_UNIT (LENGTH_MEASURE( 1.000000000000000100E-005 ), #188, 'distance_accuracy_value', 'NONE');
#166 = CARTESIAN_POINT ( 'NONE',  ( 0.0000000000000000000, 0.0000000000000000000, 0.0000000000000000000 ) ) ;
#167 = EDGE_CURVE ( 'NONE', #149, #75, #101, .T. ) ;
#168 = CARTESIAN_POINT ( 'NONE',  ( 0.0000000000000000000, -5.374987130829736100E-036, 2.184759526862333400E-016 ) ) ;
#169 =( NAMED_UNIT ( * ) SI_UNIT ( $, .STERADIAN. ) SOLID_ANGLE_UNIT ( ) );
#170 = MANIFOLD_SOLID_BREP ( '¸ðµû±â1', #71 ) ;
#171 =( GEOMETRIC_REPRESENTATION_CONTEXT ( 3 ) GLOBAL_UNCERTAINTY_ASSIGNED_CONTEXT ( ( #165 ) ) GLOBAL_UNIT_ASSIGNED_CONTEXT ( ( #188, #114, #169 ) ) REPRESENTATION_CONTEXT ( 'NONE', 'WORKASPACE' ) );
#172 = CONICAL_SURFACE ( 'NONE', #76, 2414.213562373062800, 1.178097245096167800 ) ;
#173 = EDGE_CURVE ( 'NONE', #197, #47, #141, .T. ) ;
#174 = VERTEX_POINT ( 'NONE', #127 ) ;
#175 = AXIS2_PLACEMENT_3D ( 'NONE', #187, #155, #134 ) ;
#176 = AXIS2_PLACEMENT_3D ( 'NONE', #69, #50, #36 ) ;
#177 = EDGE_LOOP ( 'NONE', ( #90, #110, #156, #209 ) ) ;
#178 = DIRECTION ( 'NONE',  ( 0.0000000000000000000, 2.460219106378761900E-020, -1.000000000000000000 ) ) ;
#179 = VERTEX_POINT ( 'NONE', #202 ) ;
#180 = CARTESIAN_POINT ( 'NONE',  ( 0.0000000000000000000, 2.655806525335873100E-018, -107.9499999999999900 ) ) ;
#181 = CARTESIAN_POINT ( 'NONE',  ( 4.606609261280993000E-050, 2.692173581100003300E-018, -109.4282039400408700 ) ) ;
#182 = CARTESIAN_POINT ( 'NONE',  ( 0.0000000000000000000, 2.692173581100002500E-018, -109.4282039400408700 ) ) ;
#183 = DIRECTION ( 'NONE',  ( 0.0000000000000000000, 1.000000000000000000, 2.460219106379510000E-020 ) ) ;
#184 = FACE_OUTER_BOUND ( 'NONE', #56, .T. ) ;
#185 = DIRECTION ( 'NONE',  ( -0.0000000000000000000, -2.460219106378761900E-020, 1.000000000000000000 ) ) ;
#186 = ORIENTED_EDGE ( 'NONE', *, *, #130, .T. ) ;
#187 = CARTESIAN_POINT ( 'NONE',  ( 0.0000000000000000000, 0.0000000000000000000, 0.0000000000000000000 ) ) ;
#188 =( LENGTH_UNIT ( ) NAMED_UNIT ( * ) SI_UNIT ( .MILLI., .METRE. ) );
#189 = ADVANCED_FACE ( 'NONE', ( #94 ), #44, .T. ) ;
#190 = VERTEX_POINT ( 'NONE', #112 ) ;
#191 = LINE ( 'NONE', #181, #160 ) ;
#192 = ORIENTED_EDGE ( 'NONE', *, *, #22, .T. ) ;
#193 = ORIENTED_EDGE ( 'NONE', *, *, #167, .F. ) ;
#194 = EDGE_CURVE ( 'NONE', #190, #75, #59, .T. ) ;
#195 = SHAPE_DEFINITION_REPRESENTATION ( #43, #136 ) ;
#196 = CONICAL_SURFACE ( 'NONE', #105, 2.854959999999989500, 0.7853981633974482800 ) ;
#197 = VERTEX_POINT ( 'NONE', #67 ) ;
#198 = DIRECTION ( 'NONE',  ( 0.0000000000000000000, 1.000000000000000000, 2.460219106379510000E-020 ) ) ;
#199 = CARTESIAN_POINT ( 'NONE',  ( 0.0000000000000000000, -5.374987130829736100E-036, 2.184759526862333400E-016 ) ) ;
#200 = CARTESIAN_POINT ( 'NONE',  ( 0.0000000000000000000, -5.374987130829736100E-036, 2.184759526862333400E-016 ) ) ;
#201 = ORIENTED_EDGE ( 'NONE', *, *, #10, .T. ) ;
#202 = CARTESIAN_POINT ( 'NONE',  ( 0.0000000000000000000, -3.568700000000007300, -0.7137400000000175800 ) ) ;
#203 = AXIS2_PLACEMENT_3D ( 'NONE', #104, #4, #164 ) ;
#204 = PLANE ( 'NONE',  #93 ) ;
#205 = ADVANCED_FACE ( 'NONE', ( #3 ), #11, .T. ) ;
#206 = CARTESIAN_POINT ( 'NONE',  ( 3.933357328905441100E-016, -2.854959999999989500, 2.184057144148338400E-016 ) ) ;
#207 = AXIS2_PLACEMENT_3D ( 'NONE', #60, #122, #143 ) ;
#208 = CIRCLE ( 'NONE', #64, 3.568700000000013100 ) ;
#209 = ORIENTED_EDGE ( 'NONE', *, *, #20, .F. ) ;
#210 = CARTESIAN_POINT ( 'NONE',  ( 0.0000000000000000000, 2.854959999999989500, 2.185461909576328300E-016 ) ) ;
#211 = PRODUCT_DEFINITION ( 'UNKNOWN', '', #58, #16 ) ;
#212 = PRODUCT ( '03-0268', '03-0268', '', ( #135 ) ) ;
#213 = COLOUR_RGB ( '',0.7921568627450980000, 0.8196078431372548800, 0.9333333333333333500 ) ;
#214 = DIRECTION ( 'NONE',  ( 0.0000000000000000000, -1.000000000000000000, 0.0000000000000000000 ) ) ;
ENDSEC;
END-ISO-10303-21;
