ISO-10303-21;
HEADER;
FILE_DESCRIPTION (( 'STEP AP214' ),
    '1' );
FILE_NAME ('03-0269.STEP',
    '2020-07-23T06:08:20',
    ( '' ),
    ( '' ),
    'SwSTEP 2.0',
    'SolidWorks 2014',
    '' );
FILE_SCHEMA (( 'AUTOMOTIVE_DESIGN' ));
ENDSEC;

DATA;
#1 = VERTEX_POINT ( 'NONE', #31 ) ;
#2 = ADVANCED_FACE ( 'NONE', ( #40 ), #133, .T. ) ;
#3 = CIRCLE ( 'NONE', #146, 3.683000000000005600 ) ;
#4 = ADVANCED_FACE ( 'NONE', ( #74 ), #171, .T. ) ;
#5 = PRODUCT_DEFINITION ( 'UNKNOWN', '', #159, #188 ) ;
#6 = CARTESIAN_POINT ( 'NONE',  ( 0.0000000000000000000, 3.682999999999999800, 2.257903443695827000E-016 ) ) ;
#7 = DIRECTION ( 'NONE',  ( 0.0000000000000000000, 1.000000000000000000, 0.0000000000000000000 ) ) ;
#8 = VECTOR ( 'NONE', #181, 999.9999999999998900 ) ;
#9 = DIRECTION ( 'NONE',  ( 0.0000000000000000000, -1.000000000000000000, 0.0000000000000000000 ) ) ;
#10 = CARTESIAN_POINT ( 'NONE',  ( 0.0000000000000000000, 0.0000000000000000000, 0.0000000000000000000 ) ) ;
#11 = DIRECTION ( 'NONE',  ( 0.0000000000000000000, -1.000000000000000000, -1.475081762680994500E-019 ) ) ;
#12 = DIRECTION ( 'NONE',  ( -0.0000000000000000000, -1.475081762680994500E-019, 1.000000000000000000 ) ) ;
#13 = SURFACE_STYLE_USAGE ( .BOTH. , #73 ) ;
#14 = AXIS2_PLACEMENT_3D ( 'NONE', #6, #46, #157 ) ;
#15 = VECTOR ( 'NONE', #162, 1000.000000000000000 ) ;
#16 = FACE_OUTER_BOUND ( 'NONE', #34, .T. ) ;
#17 = SURFACE_SIDE_STYLE ('',( #206 ) ) ;
#18 = ORIENTED_EDGE ( 'NONE', *, *, #123, .F. ) ;
#19 = UNCERTAINTY_MEASURE_WITH_UNIT (LENGTH_MEASURE( 1.000000000000000100E-005 ), #42, 'distance_accuracy_value', 'NONE');
#20 = EDGE_CURVE ( 'NONE', #212, #172, #51, .T. ) ;
#21 = ORIENTED_EDGE ( 'NONE', *, *, #197, .F. ) ;
#22 = SHAPE_DEFINITION_REPRESENTATION ( #156, #196 ) ;
#23 =( GEOMETRIC_REPRESENTATION_CONTEXT ( 3 ) GLOBAL_UNCERTAINTY_ASSIGNED_CONTEXT ( ( #19 ) ) GLOBAL_UNIT_ASSIGNED_CONTEXT ( ( #42, #69, #28 ) ) REPRESENTATION_CONTEXT ( 'NONE', 'WORKASPACE' ) );
#24 = ORIENTED_EDGE ( 'NONE', *, *, #77, .T. ) ;
#25 = ADVANCED_FACE ( 'NONE', ( #194 ), #98, .T. ) ;
#26 = LINE ( 'NONE', #132, #103 ) ;
#27 = CARTESIAN_POINT ( 'NONE',  ( 0.0000000000000000000, 1.592350762814133500E-017, -107.9499999999999900 ) ) ;
#28 =( NAMED_UNIT ( * ) SI_UNIT ( $, .STERADIAN. ) SOLID_ANGLE_UNIT ( ) );
#29 = DIRECTION ( 'NONE',  ( -0.0000000000000000000, -1.475081762680994500E-019, 1.000000000000000000 ) ) ;
#30 = DIRECTION ( 'NONE',  ( 0.0000000000000000000, 1.000000000000000000, 1.475081762680975000E-019 ) ) ;
#31 = CARTESIAN_POINT ( 'NONE',  ( 4.510374161259708500E-016, 3.683000000000005600, -0.7366000000000163500 ) ) ;
#32 = PRESENTATION_STYLE_ASSIGNMENT (( #38 ) ) ;
#33 = ORIENTED_EDGE ( 'NONE', *, *, #116, .F. ) ;
#34 = EDGE_LOOP ( 'NONE', ( #75, #72, #33, #21 ) ) ;
#35 = CARTESIAN_POINT ( 'NONE',  ( 0.0000000000000000000, 1.592350762814133500E-017, -107.9499999999999900 ) ) ;
#36 = STYLED_ITEM ( 'NONE', ( #211 ), #196 ) ;
#37 = ORIENTED_EDGE ( 'NONE', *, *, #65, .F. ) ;
#38 = SURFACE_STYLE_USAGE ( .BOTH. , #17 ) ;
#39 = CARTESIAN_POINT ( 'NONE',  ( 0.0000000000000000000, 1.086545226390844700E-019, -0.7366000000000163500 ) ) ;
#40 = FACE_OUTER_BOUND ( 'NONE', #153, .T. ) ;
#41 = FILL_AREA_STYLE ('',( #131 ) ) ;
#42 =( LENGTH_UNIT ( ) NAMED_UNIT ( * ) SI_UNIT ( .MILLI., .METRE. ) );
#43 = ORIENTED_EDGE ( 'NONE', *, *, #120, .T. ) ;
#44 = SURFACE_STYLE_FILL_AREA ( #93 ) ;
#45 = UNCERTAINTY_MEASURE_WITH_UNIT (LENGTH_MEASURE( 1.000000000000000100E-005 ), #128, 'distance_accuracy_value', 'NONE');
#46 = DIRECTION ( 'NONE',  ( 0.0000000000000000000, 1.475081762680994500E-019, -1.000000000000000000 ) ) ;
#47 = EDGE_CURVE ( 'NONE', #167, #1, #3, .T. ) ;
#48 = CYLINDRICAL_SURFACE ( 'NONE', #56, 3.683000000000005600 ) ;
#49 = EDGE_CURVE ( 'NONE', #114, #111, #166, .T. ) ;
#50 = DIRECTION ( 'NONE',  ( 0.0000000000000000000, -1.000000000000000000, 0.0000000000000000000 ) ) ;
#51 = CIRCLE ( 'NONE', #170, 2.946400000000001900 ) ;
#52 = AXIS2_PLACEMENT_3D ( 'NONE', #27, #207, #204 ) ;
#53 = LINE ( 'NONE', #198, #189 ) ;
#54 = DIRECTION ( 'NONE',  ( -0.0000000000000000000, -1.475081762680994500E-019, 1.000000000000000000 ) ) ;
#55 = VECTOR ( 'NONE', #127, 1000.000000000000000 ) ;
#56 = AXIS2_PLACEMENT_3D ( 'NONE', #185, #12, #147 ) ;
#57 = CARTESIAN_POINT ( 'NONE',  ( 0.0000000000000000000, 0.0000000000000000000, 0.0000000000000000000 ) ) ;
#58 = CARTESIAN_POINT ( 'NONE',  ( 4.510374161259714400E-016, 3.683000000000010500, -107.9499999999999900 ) ) ;
#59 = APPLICATION_CONTEXT ( 'automotive_design' ) ;
#60 = CARTESIAN_POINT ( 'NONE',  ( 0.0000000000000000000, -1.313596377555066900E-016, 890.5244514497799200 ) ) ;
#61 = FACE_OUTER_BOUND ( 'NONE', #88, .T. ) ;
#62 = ORIENTED_EDGE ( 'NONE', *, *, #77, .F. ) ;
#63 = PRESENTATION_LAYER_ASSIGNMENT (  '', '', ( #36 ) ) ;
#64 = CIRCLE ( 'NONE', #125, 3.683000000000005600 ) ;
#65 = EDGE_CURVE ( 'NONE', #111, #155, #200, .T. ) ;
#66 = CARTESIAN_POINT ( 'NONE',  ( 0.0000000000000000000, 1.086545226390844700E-019, -0.7366000000000163500 ) ) ;
#67 = DIRECTION ( 'NONE',  ( 0.0000000000000000000, 1.475081762680994200E-019, -1.000000000000000000 ) ) ;
#68 = EDGE_LOOP ( 'NONE', ( #110, #143 ) ) ;
#69 =( NAMED_UNIT ( * ) PLANE_ANGLE_UNIT ( ) SI_UNIT ( $, .RADIAN. ) );
#70 = APPLICATION_PROTOCOL_DEFINITION ( 'draft international standard', 'automotive_design', 1998, #59 ) ;
#71 = DIRECTION ( 'NONE',  ( 0.0000000000000000000, 1.000000000000000000, 1.475081762680975000E-019 ) ) ;
#72 = ORIENTED_EDGE ( 'NONE', *, *, #102, .T. ) ;
#73 = SURFACE_SIDE_STYLE ('',( #44 ) ) ;
#74 = FACE_OUTER_BOUND ( 'NONE', #136, .T. ) ;
#75 = ORIENTED_EDGE ( 'NONE', *, *, #20, .F. ) ;
#76 = ORIENTED_EDGE ( 'NONE', *, *, #49, .T. ) ;
#77 = EDGE_CURVE ( 'NONE', #111, #167, #53, .T. ) ;
#78 = PRESENTATION_LAYER_ASSIGNMENT (  '', '', ( #108 ) ) ;
#79 = ORIENTED_EDGE ( 'NONE', *, *, #116, .T. ) ;
#80 = CONICAL_SURFACE ( 'NONE', #173, 2.946400000000001900, 0.7853981633974397300 ) ;
#81 = COLOUR_RGB ( '',0.7921568627450980000, 0.8196078431372548800, 0.9333333333333333500 ) ;
#82 = ORIENTED_EDGE ( 'NONE', *, *, #47, .T. ) ;
#83 =( GEOMETRIC_REPRESENTATION_CONTEXT ( 3 ) GLOBAL_UNCERTAINTY_ASSIGNED_CONTEXT ( ( #152 ) ) GLOBAL_UNIT_ASSIGNED_CONTEXT ( ( #186, #106, #137 ) ) REPRESENTATION_CONTEXT ( 'NONE', 'WORKASPACE' ) );
#84 = DIRECTION ( 'NONE',  ( 0.0000000000000000000, 1.000000000000000000, 0.0000000000000000000 ) ) ;
#85 = PRODUCT ( '03-0269', '03-0269', '', ( #165 ) ) ;
#86 = CARTESIAN_POINT ( 'NONE',  ( 0.0000000000000000000, -3.683000000000005600, -0.7366000000000163500 ) ) ;
#87 = CARTESIAN_POINT ( 'NONE',  ( 0.0000000000000000000, 2.946400000000001900, 2.256816898469436200E-016 ) ) ;
#88 = EDGE_LOOP ( 'NONE', ( #158, #191, #24, #82 ) ) ;
#89 = AXIS2_PLACEMENT_3D ( 'NONE', #60, #210, #192 ) ;
#90 = CARTESIAN_POINT ( 'NONE',  ( 0.0000000000000000000, -3.683000000000010500, -107.9499999999999900 ) ) ;
#91 = DIRECTION ( 'NONE',  ( 0.0000000000000000000, 1.475081762680994200E-019, -1.000000000000000000 ) ) ;
#92 = MECHANICAL_DESIGN_GEOMETRIC_PRESENTATION_REPRESENTATION (  '', ( #108 ), #193 ) ;
#93 = FILL_AREA_STYLE ('',( #205 ) ) ;
#94 = DIRECTION ( 'NONE',  ( 0.0000000000000000000, 0.0000000000000000000, 1.000000000000000000 ) ) ;
#95 = MANIFOLD_SOLID_BREP ( '¸ðµû±â1', #126 ) ;
#96 = CONICAL_SURFACE ( 'NONE', #203, 2.946400000000001900, 0.7853981633974397300 ) ;
#97 = VECTOR ( 'NONE', #199, 999.9999999999998900 ) ;
#98 = CYLINDRICAL_SURFACE ( 'NONE', #213, 3.683000000000005600 ) ;
#99 = AXIS2_PLACEMENT_3D ( 'NONE', #35, #140, #50 ) ;
#100 = ORIENTED_EDGE ( 'NONE', *, *, #197, .T. ) ;
#101 = CARTESIAN_POINT ( 'NONE',  ( 4.510374161259708500E-016, 3.683000000000005600, 5.432726131954110800E-019 ) ) ;
#102 = EDGE_CURVE ( 'NONE', #212, #167, #161, .T. ) ;
#103 = VECTOR ( 'NONE', #118, 1000.000000000000000 ) ;
#104 = CARTESIAN_POINT ( 'NONE',  ( 0.0000000000000000000, -3.322578476451442400E-035, 2.252470717563873100E-016 ) ) ;
#105 = DIRECTION ( 'NONE',  ( 0.0000000000000000000, 1.475081762680994200E-019, -1.000000000000000000 ) ) ;
#106 =( NAMED_UNIT ( * ) PLANE_ANGLE_UNIT ( ) SI_UNIT ( $, .RADIAN. ) );
#107 = FACE_OUTER_BOUND ( 'NONE', #151, .T. ) ;
#108 = STYLED_ITEM ( 'NONE', ( #32 ), #95 ) ;
#109 = AXIS2_PLACEMENT_3D ( 'NONE', #202, #130, #9 ) ;
#110 = ORIENTED_EDGE ( 'NONE', *, *, #187, .T. ) ;
#111 = VERTEX_POINT ( 'NONE', #90 ) ;
#112 = CARTESIAN_POINT ( 'NONE',  ( 0.0000000000000000000, 1.614853851259274700E-017, -109.4755485502201300 ) ) ;
#113 = PLANE ( 'NONE',  #14 ) ;
#114 = VERTEX_POINT ( 'NONE', #112 ) ;
#115 = CARTESIAN_POINT ( 'NONE',  ( 0.0000000000000000000, 2.946400000000001900, 2.256816898469436200E-016 ) ) ;
#116 = EDGE_CURVE ( 'NONE', #1, #167, #64, .T. ) ;
#117 = CARTESIAN_POINT ( 'NONE',  ( 0.0000000000000000000, -3.322578476451443000E-035, 2.252470717563873100E-016 ) ) ;
#118 = DIRECTION ( 'NONE',  ( 1.131426112287698000E-016, 0.9238795325112848500, 0.3826834323650943300 ) ) ;
#119 = EDGE_LOOP ( 'NONE', ( #175, #43, #79, #62 ) ) ;
#120 = EDGE_CURVE ( 'NONE', #155, #1, #209, .T. ) ;
#121 = APPLICATION_CONTEXT ( 'automotive_design' ) ;
#122 = FACE_OUTER_BOUND ( 'NONE', #68, .T. ) ;
#123 = EDGE_CURVE ( 'NONE', #155, #111, #141, .T. ) ;
#124 = ADVANCED_FACE ( 'NONE', ( #122 ), #113, .F. ) ;
#125 = AXIS2_PLACEMENT_3D ( 'NONE', #66, #67, #7 ) ;
#126 = CLOSED_SHELL ( 'NONE', ( #184, #25, #2, #124, #4, #180, #144 ) ) ;
#127 = DIRECTION ( 'NONE',  ( 0.0000000000000000000, -0.9238795325112848500, 0.3826834323650943300 ) ) ;
#128 =( LENGTH_UNIT ( ) NAMED_UNIT ( * ) SI_UNIT ( .MILLI., .METRE. ) );
#129 = DIRECTION ( 'NONE',  ( 0.0000000000000000000, 1.000000000000000000, 1.475081762680975000E-019 ) ) ;
#130 = DIRECTION ( 'NONE',  ( -0.0000000000000000000, -1.475081762680994500E-019, 1.000000000000000000 ) ) ;
#131 = FILL_AREA_STYLE_COLOUR ( '', #169 ) ;
#132 = CARTESIAN_POINT ( 'NONE',  ( 3.685287409024794400E-049, 1.614853851259275400E-017, -109.4755485502201300 ) ) ;
#133 = CONICAL_SURFACE ( 'NONE', #89, 2414.213562373061000, 1.178097245096167500 ) ;
#134 = CARTESIAN_POINT ( 'NONE',  ( 3.608299329007763500E-016, -2.946400000000001900, 2.248124536658310100E-016 ) ) ;
#135 = CARTESIAN_POINT ( 'NONE',  ( 0.0000000000000000000, -3.322578476451442400E-035, 2.252470717563873100E-016 ) ) ;
#136 = EDGE_LOOP ( 'NONE', ( #168, #76, #18 ) ) ;
#137 =( NAMED_UNIT ( * ) SI_UNIT ( $, .STERADIAN. ) SOLID_ANGLE_UNIT ( ) );
#138 = ORIENTED_EDGE ( 'NONE', *, *, #187, .F. ) ;
#139 = AXIS2_PLACEMENT_3D ( 'NONE', #148, #160, #179 ) ;
#140 = DIRECTION ( 'NONE',  ( -0.0000000000000000000, -1.475081762680994500E-019, 1.000000000000000000 ) ) ;
#141 = CIRCLE ( 'NONE', #52, 3.683000000000011800 ) ;
#142 = EDGE_CURVE ( 'NONE', #114, #155, #26, .T. ) ;
#143 = ORIENTED_EDGE ( 'NONE', *, *, #20, .T. ) ;
#144 = ADVANCED_FACE ( 'NONE', ( #107 ), #96, .T. ) ;
#145 = CARTESIAN_POINT ( 'NONE',  ( 0.0000000000000000000, 1.614853851259274700E-017, -109.4755485502201300 ) ) ;
#146 = AXIS2_PLACEMENT_3D ( 'NONE', #39, #214, #84 ) ;
#147 = DIRECTION ( 'NONE',  ( 0.0000000000000000000, -1.000000000000000000, -1.475081762680994500E-019 ) ) ;
#148 = CARTESIAN_POINT ( 'NONE',  ( 0.0000000000000000000, -3.322578476451443000E-035, 2.252470717563873100E-016 ) ) ;
#149 =( NAMED_UNIT ( * ) PLANE_ANGLE_UNIT ( ) SI_UNIT ( $, .RADIAN. ) );
#150 = ORIENTED_EDGE ( 'NONE', *, *, #142, .T. ) ;
#151 = EDGE_LOOP ( 'NONE', ( #182, #138, #100, #195 ) ) ;
#152 = UNCERTAINTY_MEASURE_WITH_UNIT (LENGTH_MEASURE( 1.000000000000000100E-005 ), #186, 'distance_accuracy_value', 'NONE');
#153 = EDGE_LOOP ( 'NONE', ( #163, #150, #37 ) ) ;
#154 = MECHANICAL_DESIGN_GEOMETRIC_PRESENTATION_REPRESENTATION (  '', ( #36 ), #83 ) ;
#155 = VERTEX_POINT ( 'NONE', #58 ) ;
#156 = PRODUCT_DEFINITION_SHAPE ( 'NONE', 'NONE',  #5 ) ;
#157 = DIRECTION ( 'NONE',  ( 0.0000000000000000000, 1.000000000000000000, 1.475081762680994500E-019 ) ) ;
#158 = ORIENTED_EDGE ( 'NONE', *, *, #120, .F. ) ;
#159 = PRODUCT_DEFINITION_FORMATION_WITH_SPECIFIED_SOURCE ( 'ANY', '', #85, .NOT_KNOWN. ) ;
#160 = DIRECTION ( 'NONE',  ( -0.0000000000000000000, -1.475081762680994500E-019, 1.000000000000000000 ) ) ;
#161 = LINE ( 'NONE', #134, #97 ) ;
#162 = DIRECTION ( 'NONE',  ( -0.0000000000000000000, -1.475081762680994500E-019, 1.000000000000000000 ) ) ;
#163 = ORIENTED_EDGE ( 'NONE', *, *, #49, .F. ) ;
#164 = APPLICATION_PROTOCOL_DEFINITION ( 'draft international standard', 'automotive_design', 1998, #121 ) ;
#165 = PRODUCT_CONTEXT ( 'NONE', #59, 'mechanical' ) ;
#166 = LINE ( 'NONE', #145, #55 ) ;
#167 = VERTEX_POINT ( 'NONE', #86 ) ;
#168 = ORIENTED_EDGE ( 'NONE', *, *, #142, .F. ) ;
#169 = COLOUR_RGB ( '',0.7921568627450980000, 0.8196078431372548800, 0.9333333333333333500 ) ;
#170 = AXIS2_PLACEMENT_3D ( 'NONE', #117, #29, #71 ) ;
#171 = CONICAL_SURFACE ( 'NONE', #109, 2414.213562373061000, 1.178097245096167500 ) ;
#172 = VERTEX_POINT ( 'NONE', #115 ) ;
#173 = AXIS2_PLACEMENT_3D ( 'NONE', #135, #91, #30 ) ;
#174 = CIRCLE ( 'NONE', #139, 2.946400000000001900 ) ;
#175 = ORIENTED_EDGE ( 'NONE', *, *, #65, .T. ) ;
#176 = PRODUCT_RELATED_PRODUCT_CATEGORY ( 'part', '', ( #85 ) ) ;
#177 =( NAMED_UNIT ( * ) SI_UNIT ( $, .STERADIAN. ) SOLID_ANGLE_UNIT ( ) );
#178 = LINE ( 'NONE', #87, #8 ) ;
#179 = DIRECTION ( 'NONE',  ( 0.0000000000000000000, 1.000000000000000000, 1.475081762680975000E-019 ) ) ;
#180 = ADVANCED_FACE ( 'NONE', ( #61 ), #48, .T. ) ;
#181 = DIRECTION ( 'NONE',  ( 0.0000000000000000000, 0.7071067811865414700, -0.7071067811865536800 ) ) ;
#182 = ORIENTED_EDGE ( 'NONE', *, *, #102, .F. ) ;
#183 = DIRECTION ( 'NONE',  ( -0.0000000000000000000, -1.475081762680994500E-019, 1.000000000000000000 ) ) ;
#184 = ADVANCED_FACE ( 'NONE', ( #16 ), #80, .T. ) ;
#185 = CARTESIAN_POINT ( 'NONE',  ( 0.0000000000000000000, 0.0000000000000000000, 0.0000000000000000000 ) ) ;
#186 =( LENGTH_UNIT ( ) NAMED_UNIT ( * ) SI_UNIT ( .MILLI., .METRE. ) );
#187 = EDGE_CURVE ( 'NONE', #172, #212, #174, .T. ) ;
#188 = PRODUCT_DEFINITION_CONTEXT ( 'detailed design', #121, 'design' ) ;
#189 = VECTOR ( 'NONE', #54, 1000.000000000000000 ) ;
#190 = AXIS2_PLACEMENT_3D ( 'NONE', #10, #94, #208 ) ;
#191 = ORIENTED_EDGE ( 'NONE', *, *, #123, .T. ) ;
#192 = DIRECTION ( 'NONE',  ( 0.0000000000000000000, -1.000000000000000000, 0.0000000000000000000 ) ) ;
#193 =( GEOMETRIC_REPRESENTATION_CONTEXT ( 3 ) GLOBAL_UNCERTAINTY_ASSIGNED_CONTEXT ( ( #45 ) ) GLOBAL_UNIT_ASSIGNED_CONTEXT ( ( #128, #149, #177 ) ) REPRESENTATION_CONTEXT ( 'NONE', 'WORKASPACE' ) );
#194 = FACE_OUTER_BOUND ( 'NONE', #119, .T. ) ;
#195 = ORIENTED_EDGE ( 'NONE', *, *, #47, .F. ) ;
#196 = ADVANCED_BREP_SHAPE_REPRESENTATION ( '03-0269', ( #95, #190 ), #23 ) ;
#197 = EDGE_CURVE ( 'NONE', #172, #1, #178, .T. ) ;
#198 = CARTESIAN_POINT ( 'NONE',  ( 0.0000000000000000000, -3.683000000000005600, -5.432726131954110800E-019 ) ) ;
#199 = DIRECTION ( 'NONE',  ( 8.659560562354860100E-017, -0.7071067811865414700, -0.7071067811865536800 ) ) ;
#200 = CIRCLE ( 'NONE', #99, 3.683000000000011800 ) ;
#201 = CARTESIAN_POINT ( 'NONE',  ( 4.059336745133736000E-016, -2.946400000000001900, 2.248124536658310100E-016 ) ) ;
#202 = CARTESIAN_POINT ( 'NONE',  ( 0.0000000000000000000, -1.313596377555066900E-016, 890.5244514497799200 ) ) ;
#203 = AXIS2_PLACEMENT_3D ( 'NONE', #104, #105, #129 ) ;
#204 = DIRECTION ( 'NONE',  ( 0.0000000000000000000, -1.000000000000000000, 0.0000000000000000000 ) ) ;
#205 = FILL_AREA_STYLE_COLOUR ( '', #81 ) ;
#206 = SURFACE_STYLE_FILL_AREA ( #41 ) ;
#207 = DIRECTION ( 'NONE',  ( -0.0000000000000000000, -1.475081762680994500E-019, 1.000000000000000000 ) ) ;
#208 = DIRECTION ( 'NONE',  ( 1.000000000000000000, 0.0000000000000000000, 0.0000000000000000000 ) ) ;
#209 = LINE ( 'NONE', #101, #15 ) ;
#210 = DIRECTION ( 'NONE',  ( -0.0000000000000000000, -1.475081762680994500E-019, 1.000000000000000000 ) ) ;
#211 = PRESENTATION_STYLE_ASSIGNMENT (( #13 ) ) ;
#212 = VERTEX_POINT ( 'NONE', #201 ) ;
#213 = AXIS2_PLACEMENT_3D ( 'NONE', #57, #183, #11 ) ;
#214 = DIRECTION ( 'NONE',  ( 0.0000000000000000000, 1.475081762680994200E-019, -1.000000000000000000 ) ) ;
ENDSEC;
END-ISO-10303-21;
