ISO-10303-21;
HEADER;
FILE_DESCRIPTION (( 'STEP AP214' ),
    '1' );
FILE_NAME ('03-0270.STEP',
    '2020-07-23T06:09:01',
    ( '' ),
    ( '' ),
    'SwSTEP 2.0',
    'SolidWorks 2014',
    '' );
FILE_SCHEMA (( 'AUTOMOTIVE_DESIGN' ));
ENDSEC;

DATA;
#1 = STYLED_ITEM ( 'NONE', ( #49 ), #177 ) ;
#2 = VECTOR ( 'NONE', #173, 1000.000000000000000 ) ;
#3 = APPLICATION_CONTEXT ( 'automotive_design' ) ;
#4 = EDGE_CURVE ( 'NONE', #119, #22, #30, .T. ) ;
#5 = DIRECTION ( 'NONE',  ( 0.0000000000000000000, 0.0000000000000000000, 1.000000000000000000 ) ) ;
#6 = DIRECTION ( 'NONE',  ( 0.0000000000000000000, 1.000000000000000000, 3.218355800324555000E-020 ) ) ;
#7 = DIRECTION ( 'NONE',  ( 0.0000000000000000000, -1.000000000000000000, -3.218355800324110900E-020 ) ) ;
#8 = CIRCLE ( 'NONE', #112, 3.746500000000013500 ) ;
#9 = EDGE_LOOP ( 'NONE', ( #152, #206, #26, #47 ) ) ;
#10 = CIRCLE ( 'NONE', #32, 3.746500000000006800 ) ;
#11 = ORIENTED_EDGE ( 'NONE', *, *, #59, .T. ) ;
#12 = STYLED_ITEM ( 'NONE', ( #123 ), #68 ) ;
#13 = CARTESIAN_POINT ( 'NONE',  ( 0.0000000000000000000, 2.997200000000005600, 2.294431343602956500E-016 ) ) ;
#14 = EDGE_CURVE ( 'NONE', #74, #22, #192, .T. ) ;
#15 = CARTESIAN_POINT ( 'NONE',  ( 0.0000000000000000000, -3.746500000000006800, -1.205757000591430300E-019 ) ) ;
#16 = CIRCLE ( 'NONE', #44, 3.746500000000006800 ) ;
#17 = SURFACE_STYLE_FILL_AREA ( #176 ) ;
#18 =( NAMED_UNIT ( * ) SI_UNIT ( $, .STERADIAN. ) SOLID_ANGLE_UNIT ( ) );
#19 = DIRECTION ( 'NONE',  ( -0.0000000000000000000, -3.218355800324110900E-020, 1.000000000000000000 ) ) ;
#20 = CARTESIAN_POINT ( 'NONE',  ( 0.0000000000000000000, -2.855721602987381000E-017, 887.3231488885691100 ) ) ;
#21 = CARTESIAN_POINT ( 'NONE',  ( 0.0000000000000000000, -7.381191979100713100E-036, 2.293466738002483500E-016 ) ) ;
#22 = VERTEX_POINT ( 'NONE', #73 ) ;
#23 = PRODUCT_RELATED_PRODUCT_CATEGORY ( 'part', '', ( #46 ) ) ;
#24 =( NAMED_UNIT ( * ) SI_UNIT ( $, .STERADIAN. ) SOLID_ANGLE_UNIT ( ) );
#25 = APPLICATION_PROTOCOL_DEFINITION ( 'draft international standard', 'automotive_design', 1998, #198 ) ;
#26 = ORIENTED_EDGE ( 'NONE', *, *, #59, .F. ) ;
#27 = CARTESIAN_POINT ( 'NONE',  ( 0.0000000000000000000, -2.855721602987381000E-017, 887.3231488885691100 ) ) ;
#28 = CARTESIAN_POINT ( 'NONE',  ( 4.588139233005566900E-016, 3.746500000000006800, -0.7493000000000004100 ) ) ;
#29 =( GEOMETRIC_REPRESENTATION_CONTEXT ( 3 ) GLOBAL_UNCERTAINTY_ASSIGNED_CONTEXT ( ( #166 ) ) GLOBAL_UNIT_ASSIGNED_CONTEXT ( ( #76, #108, #24 ) ) REPRESENTATION_CONTEXT ( 'NONE', 'WORKASPACE' ) );
#30 = LINE ( 'NONE', #41, #106 ) ;
#31 = EDGE_LOOP ( 'NONE', ( #208, #144, #45, #194 ) ) ;
#32 = AXIS2_PLACEMENT_3D ( 'NONE', #90, #37, #117 ) ;
#33 = VERTEX_POINT ( 'NONE', #109 ) ;
#34 = ADVANCED_FACE ( 'NONE', ( #126 ), #172, .T. ) ;
#35 = DIRECTION ( 'NONE',  ( 0.0000000000000000000, 1.000000000000000000, 3.218355800324555000E-020 ) ) ;
#36 = LINE ( 'NONE', #118, #182 ) ;
#37 = DIRECTION ( 'NONE',  ( 0.0000000000000000000, 3.218355800324110900E-020, -1.000000000000000000 ) ) ;
#38 = COLOUR_RGB ( '',0.7921568627450980000, 0.8196078431372548800, 0.9333333333333333500 ) ;
#39 = CARTESIAN_POINT ( 'NONE',  ( 0.0000000000000000000, -7.381191979100713100E-036, 2.293466738002483500E-016 ) ) ;
#40 = DIRECTION ( 'NONE',  ( -0.0000000000000000000, -3.218355800324110900E-020, 1.000000000000000000 ) ) ;
#41 = CARTESIAN_POINT ( 'NONE',  ( 0.0000000000000000000, 3.626341973367296300E-018, -112.6768511114308400 ) ) ;
#42 = FACE_OUTER_BOUND ( 'NONE', #63, .T. ) ;
#43 = DIRECTION ( 'NONE',  ( 0.0000000000000000000, 3.218355800324110900E-020, -1.000000000000000000 ) ) ;
#44 = AXIS2_PLACEMENT_3D ( 'NONE', #159, #186, #201 ) ;
#45 = ORIENTED_EDGE ( 'NONE', *, *, #149, .T. ) ;
#46 = PRODUCT ( '03-0270', '03-0270', '', ( #107 ) ) ;
#47 = ORIENTED_EDGE ( 'NONE', *, *, #149, .F. ) ;
#48 = CARTESIAN_POINT ( 'NONE',  ( 0.0000000000000000000, 3.626341973367296300E-018, -112.6768511114308400 ) ) ;
#49 = PRESENTATION_STYLE_ASSIGNMENT (( #61 ) ) ;
#50 = ADVANCED_FACE ( 'NONE', ( #111 ), #77, .T. ) ;
#51 =( NAMED_UNIT ( * ) PLANE_ANGLE_UNIT ( ) SI_UNIT ( $, .RADIAN. ) );
#52 = EDGE_CURVE ( 'NONE', #119, #74, #204, .T. ) ;
#53 = FILL_AREA_STYLE_COLOUR ( '', #91 ) ;
#54 = ADVANCED_FACE ( 'NONE', ( #94 ), #105, .T. ) ;
#55 = VERTEX_POINT ( 'NONE', #28 ) ;
#56 = CARTESIAN_POINT ( 'NONE',  ( 4.588139233005566900E-016, 3.746500000000006800, 1.205757000591430300E-019 ) ) ;
#57 = MECHANICAL_DESIGN_GEOMETRIC_PRESENTATION_REPRESENTATION (  '', ( #12 ), #160 ) ;
#58 = VERTEX_POINT ( 'NONE', #203 ) ;
#59 = EDGE_CURVE ( 'NONE', #55, #33, #16, .T. ) ;
#60 = UNCERTAINTY_MEASURE_WITH_UNIT (LENGTH_MEASURE( 1.000000000000000100E-005 ), #156, 'distance_accuracy_value', 'NONE');
#61 = SURFACE_STYLE_USAGE ( .BOTH. , #75 ) ;
#62 = DIRECTION ( 'NONE',  ( 0.0000000000000000000, 1.000000000000000000, 3.218355800324555000E-020 ) ) ;
#63 = EDGE_LOOP ( 'NONE', ( #97, #151 ) ) ;
#64 = AXIS2_PLACEMENT_3D ( 'NONE', #213, #93, #145 ) ;
#65 = ORIENTED_EDGE ( 'NONE', *, *, #142, .F. ) ;
#66 = EDGE_CURVE ( 'NONE', #165, #58, #207, .T. ) ;
#67 = PRODUCT_DEFINITION ( 'UNKNOWN', '', #178, #212 ) ;
#68 = MANIFOLD_SOLID_BREP ( '¸ðµû±â1', #163 ) ;
#69 = AXIS2_PLACEMENT_3D ( 'NONE', #20, #211, #214 ) ;
#70 = CARTESIAN_POINT ( 'NONE',  ( 0.0000000000000000000, 3.746499999999999700, 2.294672495003074600E-016 ) ) ;
#71 = ADVANCED_FACE ( 'NONE', ( #85 ), #131, .T. ) ;
#72 = DIRECTION ( 'NONE',  ( 0.0000000000000000000, -1.000000000000000000, 0.0000000000000000000 ) ) ;
#73 = CARTESIAN_POINT ( 'NONE',  ( 4.588139233005574800E-016, 3.746500000000013500, -111.1250000000000000 ) ) ;
#74 = VERTEX_POINT ( 'NONE', #125 ) ;
#75 = SURFACE_SIDE_STYLE ('',( #17 ) ) ;
#76 =( LENGTH_UNIT ( ) NAMED_UNIT ( * ) SI_UNIT ( .MILLI., .METRE. ) );
#77 = CONICAL_SURFACE ( 'NONE', #80, 2414.213562373058700, 1.178097245096167100 ) ;
#78 = ORIENTED_EDGE ( 'NONE', *, *, #81, .T. ) ;
#79 = DIRECTION ( 'NONE',  ( -0.0000000000000000000, -3.218355800324110900E-020, 1.000000000000000000 ) ) ;
#80 = AXIS2_PLACEMENT_3D ( 'NONE', #27, #79, #146 ) ;
#81 = EDGE_CURVE ( 'NONE', #22, #74, #8, .T. ) ;
#82 = CYLINDRICAL_SURFACE ( 'NONE', #209, 3.746500000000006800 ) ;
#83 = ORIENTED_EDGE ( 'NONE', *, *, #4, .F. ) ;
#84 = ADVANCED_FACE ( 'NONE', ( #42 ), #183, .F. ) ;
#85 = FACE_OUTER_BOUND ( 'NONE', #31, .T. ) ;
#86 = SURFACE_STYLE_USAGE ( .BOTH. , #185 ) ;
#87 =( NAMED_UNIT ( * ) SI_UNIT ( $, .STERADIAN. ) SOLID_ANGLE_UNIT ( ) );
#88 = ADVANCED_FACE ( 'NONE', ( #143 ), #82, .T. ) ;
#89 = PRESENTATION_LAYER_ASSIGNMENT (  '', '', ( #1 ) ) ;
#90 = CARTESIAN_POINT ( 'NONE',  ( 0.0000000000000000000, 2.411514001182857400E-020, -0.7493000000000004100 ) ) ;
#91 = COLOUR_RGB ( '',0.7921568627450980000, 0.8196078431372548800, 0.9333333333333333500 ) ;
#92 = ORIENTED_EDGE ( 'NONE', *, *, #52, .T. ) ;
#93 = DIRECTION ( 'NONE',  ( -0.0000000000000000000, -3.218355800324110900E-020, 1.000000000000000000 ) ) ;
#94 = FACE_OUTER_BOUND ( 'NONE', #9, .T. ) ;
#95 = ORIENTED_EDGE ( 'NONE', *, *, #188, .F. ) ;
#96 = EDGE_LOOP ( 'NONE', ( #199, #174, #115 ) ) ;
#97 = ORIENTED_EDGE ( 'NONE', *, *, #66, .T. ) ;
#98 = CARTESIAN_POINT ( 'NONE',  ( 0.0000000000000000000, -7.381191979100710400E-036, 2.293466738002483500E-016 ) ) ;
#99 = AXIS2_PLACEMENT_3D ( 'NONE', #98, #196, #138 ) ;
#100 = CARTESIAN_POINT ( 'NONE',  ( 0.0000000000000000000, 0.0000000000000000000, 0.0000000000000000000 ) ) ;
#101 = FILL_AREA_STYLE ('',( #190 ) ) ;
#102 = FACE_OUTER_BOUND ( 'NONE', #147, .T. ) ;
#103 = DIRECTION ( 'NONE',  ( 0.0000000000000000000, -1.000000000000000000, -3.218355800324110900E-020 ) ) ;
#104 =( GEOMETRIC_REPRESENTATION_CONTEXT ( 3 ) GLOBAL_UNCERTAINTY_ASSIGNED_CONTEXT ( ( #124 ) ) GLOBAL_UNIT_ASSIGNED_CONTEXT ( ( #157, #184, #87 ) ) REPRESENTATION_CONTEXT ( 'NONE', 'WORKASPACE' ) );
#105 = CONICAL_SURFACE ( 'NONE', #191, 2.997200000000005600, 0.7853981633974488300 ) ;
#106 = VECTOR ( 'NONE', #158, 1000.000000000000100 ) ;
#107 = PRODUCT_CONTEXT ( 'NONE', #198, 'mechanical' ) ;
#108 =( NAMED_UNIT ( * ) PLANE_ANGLE_UNIT ( ) SI_UNIT ( $, .RADIAN. ) );
#109 = CARTESIAN_POINT ( 'NONE',  ( 0.0000000000000000000, -3.746500000000006800, -0.7493000000000004100 ) ) ;
#110 = CARTESIAN_POINT ( 'NONE',  ( 0.0000000000000000000, 0.0000000000000000000, 0.0000000000000000000 ) ) ;
#111 = FACE_OUTER_BOUND ( 'NONE', #96, .T. ) ;
#112 = AXIS2_PLACEMENT_3D ( 'NONE', #141, #154, #72 ) ;
#113 = EDGE_CURVE ( 'NONE', #33, #55, #10, .T. ) ;
#114 = AXIS2_PLACEMENT_3D ( 'NONE', #21, #40, #62 ) ;
#115 = ORIENTED_EDGE ( 'NONE', *, *, #14, .F. ) ;
#116 = ADVANCED_FACE ( 'NONE', ( #102 ), #202, .T. ) ;
#117 = DIRECTION ( 'NONE',  ( 0.0000000000000000000, 1.000000000000000000, 0.0000000000000000000 ) ) ;
#118 = CARTESIAN_POINT ( 'NONE',  ( 0.0000000000000000000, 2.997200000000005600, 2.294431343602956500E-016 ) ) ;
#119 = VERTEX_POINT ( 'NONE', #120 ) ;
#120 = CARTESIAN_POINT ( 'NONE',  ( 0.0000000000000000000, 3.626341973367296300E-018, -112.6768511114308400 ) ) ;
#121 = MECHANICAL_DESIGN_GEOMETRIC_PRESENTATION_REPRESENTATION (  '', ( #1 ), #29 ) ;
#122 = DIRECTION ( 'NONE',  ( 0.0000000000000000000, 0.7071067811865479100, -0.7071067811865471300 ) ) ;
#123 = PRESENTATION_STYLE_ASSIGNMENT (( #86 ) ) ;
#124 = UNCERTAINTY_MEASURE_WITH_UNIT (LENGTH_MEASURE( 1.000000000000000100E-005 ), #157, 'distance_accuracy_value', 'NONE');
#125 = CARTESIAN_POINT ( 'NONE',  ( 0.0000000000000000000, -3.746500000000013500, -111.1250000000000000 ) ) ;
#126 = FACE_OUTER_BOUND ( 'NONE', #181, .T. ) ;
#127 = DIRECTION ( 'NONE',  ( 1.000000000000000000, 0.0000000000000000000, 0.0000000000000000000 ) ) ;
#128 = AXIS2_PLACEMENT_3D ( 'NONE', #70, #210, #195 ) ;
#129 = PRODUCT_DEFINITION_SHAPE ( 'NONE', 'NONE',  #67 ) ;
#130 = ORIENTED_EDGE ( 'NONE', *, *, #142, .T. ) ;
#131 = CONICAL_SURFACE ( 'NONE', #99, 2.997200000000005600, 0.7853981633974488300 ) ;
#132 = ORIENTED_EDGE ( 'NONE', *, *, #188, .T. ) ;
#133 = VECTOR ( 'NONE', #19, 1000.000000000000000 ) ;
#134 = ORIENTED_EDGE ( 'NONE', *, *, #113, .T. ) ;
#135 = EDGE_CURVE ( 'NONE', #58, #165, #180, .T. ) ;
#136 = DIRECTION ( 'NONE',  ( -0.0000000000000000000, -3.218355800324110900E-020, 1.000000000000000000 ) ) ;
#137 = AXIS2_PLACEMENT_3D ( 'NONE', #39, #136, #35 ) ;
#138 = DIRECTION ( 'NONE',  ( 0.0000000000000000000, 1.000000000000000000, 3.218355800324555000E-020 ) ) ;
#139 = LINE ( 'NONE', #15, #133 ) ;
#140 = ORIENTED_EDGE ( 'NONE', *, *, #14, .T. ) ;
#141 = CARTESIAN_POINT ( 'NONE',  ( 0.0000000000000000000, 3.576397883110168600E-018, -111.1250000000000000 ) ) ;
#142 = EDGE_CURVE ( 'NONE', #22, #55, #205, .T. ) ;
#143 = FACE_OUTER_BOUND ( 'NONE', #161, .T. ) ;
#144 = ORIENTED_EDGE ( 'NONE', *, *, #66, .F. ) ;
#145 = DIRECTION ( 'NONE',  ( 0.0000000000000000000, -1.000000000000000000, 0.0000000000000000000 ) ) ;
#146 = DIRECTION ( 'NONE',  ( 0.0000000000000000000, -1.000000000000000000, 0.0000000000000000000 ) ) ;
#147 = EDGE_LOOP ( 'NONE', ( #83, #92, #162 ) ) ;
#148 = EDGE_CURVE ( 'NONE', #58, #33, #168, .T. ) ;
#149 = EDGE_CURVE ( 'NONE', #165, #55, #36, .T. ) ;
#150 = SURFACE_STYLE_FILL_AREA ( #101 ) ;
#151 = ORIENTED_EDGE ( 'NONE', *, *, #135, .T. ) ;
#152 = ORIENTED_EDGE ( 'NONE', *, *, #135, .F. ) ;
#153 = CARTESIAN_POINT ( 'NONE',  ( 3.670511386404453700E-016, -2.997200000000005600, 2.292502132402010000E-016 ) ) ;
#154 = DIRECTION ( 'NONE',  ( -0.0000000000000000000, -3.218355800324110900E-020, 1.000000000000000000 ) ) ;
#155 = SHAPE_DEFINITION_REPRESENTATION ( #129, #177 ) ;
#156 =( LENGTH_UNIT ( ) NAMED_UNIT ( * ) SI_UNIT ( .MILLI., .METRE. ) );
#157 =( LENGTH_UNIT ( ) NAMED_UNIT ( * ) SI_UNIT ( .MILLI., .METRE. ) );
#158 = DIRECTION ( 'NONE',  ( 1.131426112287697500E-016, 0.9238795325112846300, 0.3826834323650947200 ) ) ;
#159 = CARTESIAN_POINT ( 'NONE',  ( 0.0000000000000000000, 2.411514001182857400E-020, -0.7493000000000004100 ) ) ;
#160 =( GEOMETRIC_REPRESENTATION_CONTEXT ( 3 ) GLOBAL_UNCERTAINTY_ASSIGNED_CONTEXT ( ( #60 ) ) GLOBAL_UNIT_ASSIGNED_CONTEXT ( ( #156, #51, #18 ) ) REPRESENTATION_CONTEXT ( 'NONE', 'WORKASPACE' ) );
#161 = EDGE_LOOP ( 'NONE', ( #140, #130, #11, #95 ) ) ;
#162 = ORIENTED_EDGE ( 'NONE', *, *, #81, .F. ) ;
#163 = CLOSED_SHELL ( 'NONE', ( #54, #88, #50, #84, #116, #34, #71 ) ) ;
#164 = VECTOR ( 'NONE', #167, 1000.000000000000100 ) ;
#165 = VERTEX_POINT ( 'NONE', #13 ) ;
#166 = UNCERTAINTY_MEASURE_WITH_UNIT (LENGTH_MEASURE( 1.000000000000000100E-005 ), #76, 'distance_accuracy_value', 'NONE');
#167 = DIRECTION ( 'NONE',  ( 0.0000000000000000000, -0.9238795325112846300, 0.3826834323650947200 ) ) ;
#168 = LINE ( 'NONE', #153, #179 ) ;
#169 = DIRECTION ( 'NONE',  ( 8.659560562354937800E-017, -0.7071067811865479100, -0.7071067811865471300 ) ) ;
#170 = AXIS2_PLACEMENT_3D ( 'NONE', #171, #5, #127 ) ;
#171 = CARTESIAN_POINT ( 'NONE',  ( 0.0000000000000000000, 0.0000000000000000000, 0.0000000000000000000 ) ) ;
#172 = CYLINDRICAL_SURFACE ( 'NONE', #193, 3.746500000000006800 ) ;
#173 = DIRECTION ( 'NONE',  ( -0.0000000000000000000, -3.218355800324110900E-020, 1.000000000000000000 ) ) ;
#174 = ORIENTED_EDGE ( 'NONE', *, *, #4, .T. ) ;
#175 = DIRECTION ( 'NONE',  ( -0.0000000000000000000, -3.218355800324110900E-020, 1.000000000000000000 ) ) ;
#176 = FILL_AREA_STYLE ('',( #53 ) ) ;
#177 = ADVANCED_BREP_SHAPE_REPRESENTATION ( '03-0270', ( #68, #170 ), #104 ) ;
#178 = PRODUCT_DEFINITION_FORMATION_WITH_SPECIFIED_SOURCE ( 'ANY', '', #46, .NOT_KNOWN. ) ;
#179 = VECTOR ( 'NONE', #169, 1000.000000000000000 ) ;
#180 = CIRCLE ( 'NONE', #137, 2.997200000000005600 ) ;
#181 = EDGE_LOOP ( 'NONE', ( #65, #78, #132, #134 ) ) ;
#182 = VECTOR ( 'NONE', #122, 1000.000000000000000 ) ;
#183 = PLANE ( 'NONE',  #128 ) ;
#184 =( NAMED_UNIT ( * ) PLANE_ANGLE_UNIT ( ) SI_UNIT ( $, .RADIAN. ) );
#185 = SURFACE_SIDE_STYLE ('',( #150 ) ) ;
#186 = DIRECTION ( 'NONE',  ( 0.0000000000000000000, 3.218355800324110900E-020, -1.000000000000000000 ) ) ;
#187 = APPLICATION_PROTOCOL_DEFINITION ( 'draft international standard', 'automotive_design', 1998, #3 ) ;
#188 = EDGE_CURVE ( 'NONE', #74, #33, #139, .T. ) ;
#189 = CARTESIAN_POINT ( 'NONE',  ( 0.0000000000000000000, -7.381191979100710400E-036, 2.293466738002483500E-016 ) ) ;
#190 = FILL_AREA_STYLE_COLOUR ( '', #38 ) ;
#191 = AXIS2_PLACEMENT_3D ( 'NONE', #189, #43, #6 ) ;
#192 = CIRCLE ( 'NONE', #64, 3.746500000000013500 ) ;
#193 = AXIS2_PLACEMENT_3D ( 'NONE', #110, #175, #7 ) ;
#194 = ORIENTED_EDGE ( 'NONE', *, *, #113, .F. ) ;
#195 = DIRECTION ( 'NONE',  ( 0.0000000000000000000, 1.000000000000000000, 3.218355800324110900E-020 ) ) ;
#196 = DIRECTION ( 'NONE',  ( 0.0000000000000000000, 3.218355800324110900E-020, -1.000000000000000000 ) ) ;
#197 = DIRECTION ( 'NONE',  ( -0.0000000000000000000, -3.218355800324110900E-020, 1.000000000000000000 ) ) ;
#198 = APPLICATION_CONTEXT ( 'automotive_design' ) ;
#199 = ORIENTED_EDGE ( 'NONE', *, *, #52, .F. ) ;
#200 = PRESENTATION_LAYER_ASSIGNMENT (  '', '', ( #12 ) ) ;
#201 = DIRECTION ( 'NONE',  ( 0.0000000000000000000, 1.000000000000000000, 0.0000000000000000000 ) ) ;
#202 = CONICAL_SURFACE ( 'NONE', #69, 2414.213562373058700, 1.178097245096167100 ) ;
#203 = CARTESIAN_POINT ( 'NONE',  ( 4.129325309705010300E-016, -2.997200000000005600, 2.292502132402010000E-016 ) ) ;
#204 = LINE ( 'NONE', #48, #164 ) ;
#205 = LINE ( 'NONE', #56, #2 ) ;
#206 = ORIENTED_EDGE ( 'NONE', *, *, #148, .T. ) ;
#207 = CIRCLE ( 'NONE', #114, 2.997200000000005600 ) ;
#208 = ORIENTED_EDGE ( 'NONE', *, *, #148, .F. ) ;
#209 = AXIS2_PLACEMENT_3D ( 'NONE', #100, #197, #103 ) ;
#210 = DIRECTION ( 'NONE',  ( 0.0000000000000000000, 3.218355800324110900E-020, -1.000000000000000000 ) ) ;
#211 = DIRECTION ( 'NONE',  ( -0.0000000000000000000, -3.218355800324110900E-020, 1.000000000000000000 ) ) ;
#212 = PRODUCT_DEFINITION_CONTEXT ( 'detailed design', #3, 'design' ) ;
#213 = CARTESIAN_POINT ( 'NONE',  ( 0.0000000000000000000, 3.576397883110168600E-018, -111.1250000000000000 ) ) ;
#214 = DIRECTION ( 'NONE',  ( 0.0000000000000000000, -1.000000000000000000, 0.0000000000000000000 ) ) ;
ENDSEC;
END-ISO-10303-21;
