ISO-10303-21;
HEADER;
FILE_DESCRIPTION (( 'STEP AP214' ),
    '1' );
FILE_NAME ('03-0271.STEP',
    '2020-07-23T06:09:42',
    ( '' ),
    ( '' ),
    'SwSTEP 2.0',
    'SolidWorks 2014',
    '' );
FILE_SCHEMA (( 'AUTOMOTIVE_DESIGN' ));
ENDSEC;

DATA;
#1 = CARTESIAN_POINT ( 'NONE',  ( 0.0000000000000000000, 0.0000000000000000000, 0.0000000000000000000 ) ) ;
#2 = EDGE_LOOP ( 'NONE', ( #204, #134, #91 ) ) ;
#3 = SURFACE_SIDE_STYLE ('',( #93 ) ) ;
#4 = DIRECTION ( 'NONE',  ( -0.0000000000000000000, 1.634542157601623100E-020, 1.000000000000000000 ) ) ;
#5 = CARTESIAN_POINT ( 'NONE',  ( 4.697010333449777400E-016, 3.835400000000015000, -111.1250000000000000 ) ) ;
#6 = CARTESIAN_POINT ( 'NONE',  ( 0.0000000000000000000, 0.0000000000000000000, 0.0000000000000000000 ) ) ;
#7 =( NAMED_UNIT ( * ) SI_UNIT ( $, .STERADIAN. ) SOLID_ANGLE_UNIT ( ) );
#8 = AXIS2_PLACEMENT_3D ( 'NONE', #60, #157, #172 ) ;
#9 = ORIENTED_EDGE ( 'NONE', *, *, #37, .T. ) ;
#10 = AXIS2_PLACEMENT_3D ( 'NONE', #182, #111, #113 ) ;
#11 = EDGE_CURVE ( 'NONE', #76, #163, #27, .T. ) ;
#12 = LINE ( 'NONE', #199, #83 ) ;
#13 = SHAPE_DEFINITION_REPRESENTATION ( #66, #14 ) ;
#14 = ADVANCED_BREP_SHAPE_REPRESENTATION ( '03-0271', ( #185, #108 ), #195 ) ;
#15 = DIRECTION ( 'NONE',  ( 0.0000000000000000000, -1.000000000000000000, 0.0000000000000000000 ) ) ;
#16 = EDGE_CURVE ( 'NONE', #198, #98, #73, .T. ) ;
#17 = EDGE_LOOP ( 'NONE', ( #94, #132, #31, #160 ) ) ;
#18 =( LENGTH_UNIT ( ) NAMED_UNIT ( * ) SI_UNIT ( .MILLI., .METRE. ) );
#19 =( NAMED_UNIT ( * ) SI_UNIT ( $, .STERADIAN. ) SOLID_ANGLE_UNIT ( ) );
#20 = ORIENTED_EDGE ( 'NONE', *, *, #81, .F. ) ;
#21 = VECTOR ( 'NONE', #42, 1000.000000000000000 ) ;
#22 = DIRECTION ( 'NONE',  ( 0.0000000000000000000, -1.634542157601623100E-020, -1.000000000000000000 ) ) ;
#23 = CARTESIAN_POINT ( 'NONE',  ( 0.0000000000000000000, -1.842352530306474800E-018, -112.7136746971258000 ) ) ;
#24 = DIRECTION ( 'NONE',  ( 0.0000000000000000000, -1.634542157601623100E-020, -1.000000000000000000 ) ) ;
#25 = SURFACE_STYLE_USAGE ( .BOTH. , #46 ) ;
#26 =( LENGTH_UNIT ( ) NAMED_UNIT ( * ) SI_UNIT ( .MILLI., .METRE. ) );
#27 = CIRCLE ( 'NONE', #92, 3.068319999999985300 ) ;
#28 = EDGE_LOOP ( 'NONE', ( #194, #30 ) ) ;
#29 = CIRCLE ( 'NONE', #138, 3.835400000000013200 ) ;
#30 = ORIENTED_EDGE ( 'NONE', *, *, #11, .T. ) ;
#31 = ORIENTED_EDGE ( 'NONE', *, *, #16, .F. ) ;
#32 = CYLINDRICAL_SURFACE ( 'NONE', #90, 3.835400000000006100 ) ;
#33 =( GEOMETRIC_REPRESENTATION_CONTEXT ( 3 ) GLOBAL_UNCERTAINTY_ASSIGNED_CONTEXT ( ( #152 ) ) GLOBAL_UNIT_ASSIGNED_CONTEXT ( ( #18, #155, #19 ) ) REPRESENTATION_CONTEXT ( 'NONE', 'WORKASPACE' ) );
#34 = CYLINDRICAL_SURFACE ( 'NONE', #120, 3.835400000000006100 ) ;
#35 = VERTEX_POINT ( 'NONE', #106 ) ;
#36 = CARTESIAN_POINT ( 'NONE',  ( 0.0000000000000000000, -1.253824598253085400E-020, -0.7670800000000197500 ) ) ;
#37 = EDGE_CURVE ( 'NONE', #207, #98, #119, .T. ) ;
#38 = DIRECTION ( 'NONE',  ( 0.0000000000000000000, -1.634542157601623100E-020, -1.000000000000000000 ) ) ;
#39 = CARTESIAN_POINT ( 'NONE',  ( 0.0000000000000000000, -3.835400000000006100, -0.7670800000000197500 ) ) ;
#40 = ORIENTED_EDGE ( 'NONE', *, *, #161, .F. ) ;
#41 = CONICAL_SURFACE ( 'NONE', #8, 2414.213562373056900, 1.178097245096166900 ) ;
#42 = DIRECTION ( 'NONE',  ( 0.0000000000000000000, 0.7071067811865479100, -0.7071067811865471300 ) ) ;
#43 =( NAMED_UNIT ( * ) PLANE_ANGLE_UNIT ( ) SI_UNIT ( $, .RADIAN. ) );
#44 = DIRECTION ( 'NONE',  ( 8.659560562354937800E-017, -0.7071067811865479100, -0.7071067811865471300 ) ) ;
#45 = ADVANCED_FACE ( 'NONE', ( #153 ), #192, .T. ) ;
#46 = SURFACE_SIDE_STYLE ('',( #146 ) ) ;
#47 = PRODUCT_RELATED_PRODUCT_CATEGORY ( 'part', '', ( #85 ) ) ;
#48 = DIRECTION ( 'NONE',  ( 1.000000000000000000, 0.0000000000000000000, 0.0000000000000000000 ) ) ;
#49 = PRODUCT_CONTEXT ( 'NONE', #58, 'mechanical' ) ;
#50 = MECHANICAL_DESIGN_GEOMETRIC_PRESENTATION_REPRESENTATION (  '', ( #56 ), #52 ) ;
#51 = CLOSED_SHELL ( 'NONE', ( #45, #79, #86, #188, #143, #175, #206 ) ) ;
#52 =( GEOMETRIC_REPRESENTATION_CONTEXT ( 3 ) GLOBAL_UNCERTAINTY_ASSIGNED_CONTEXT ( ( #118 ) ) GLOBAL_UNIT_ASSIGNED_CONTEXT ( ( #26, #205, #159 ) ) REPRESENTATION_CONTEXT ( 'NONE', 'WORKASPACE' ) );
#53 = DIRECTION ( 'NONE',  ( -0.0000000000000000000, 1.634542157601623100E-020, 1.000000000000000000 ) ) ;
#54 = DIRECTION ( 'NONE',  ( 0.0000000000000000000, 1.000000000000000000, 0.0000000000000000000 ) ) ;
#55 = DIRECTION ( 'NONE',  ( -0.0000000000000000000, 1.634542157601623100E-020, 1.000000000000000000 ) ) ;
#56 = STYLED_ITEM ( 'NONE', ( #189 ), #14 ) ;
#57 = ORIENTED_EDGE ( 'NONE', *, *, #107, .F. ) ;
#58 = APPLICATION_CONTEXT ( 'automotive_design' ) ;
#59 = DIRECTION ( 'NONE',  ( 0.0000000000000000000, 1.000000000000000000, 0.0000000000000000000 ) ) ;
#60 = CARTESIAN_POINT ( 'NONE',  ( 0.0000000000000000000, 1.450306904570975600E-017, 887.2863253028741600 ) ) ;
#61 = DIRECTION ( 'NONE',  ( 1.131426112287697800E-016, 0.9238795325112846300, 0.3826834323650950000 ) ) ;
#62 = DIRECTION ( 'NONE',  ( 0.0000000000000000000, 1.000000000000000000, -1.634542157601500300E-020 ) ) ;
#63 = COLOUR_RGB ( '',0.7921568627450980000, 0.8196078431372548800, 0.9333333333333333500 ) ;
#64 = EDGE_CURVE ( 'NONE', #207, #87, #128, .T. ) ;
#65 = ORIENTED_EDGE ( 'NONE', *, *, #16, .T. ) ;
#66 = PRODUCT_DEFINITION_SHAPE ( 'NONE', 'NONE',  #84 ) ;
#67 = MECHANICAL_DESIGN_GEOMETRIC_PRESENTATION_REPRESENTATION (  '', ( #148 ), #33 ) ;
#68 = ORIENTED_EDGE ( 'NONE', *, *, #64, .T. ) ;
#69 = EDGE_CURVE ( 'NONE', #87, #198, #116, .T. ) ;
#70 = ORIENTED_EDGE ( 'NONE', *, *, #135, .T. ) ;
#71 = FACE_OUTER_BOUND ( 'NONE', #2, .T. ) ;
#72 = DIRECTION ( 'NONE',  ( -0.0000000000000000000, 1.634542157601623100E-020, 1.000000000000000000 ) ) ;
#73 = CIRCLE ( 'NONE', #105, 3.835400000000006100 ) ;
#74 = EDGE_CURVE ( 'NONE', #87, #207, #29, .T. ) ;
#75 = CARTESIAN_POINT ( 'NONE',  ( 4.697010333449766600E-016, 3.835400000000006100, -0.7670800000000197500 ) ) ;
#76 = VERTEX_POINT ( 'NONE', #212 ) ;
#77 = DIRECTION ( 'NONE',  ( -0.0000000000000000000, 1.634542157601623100E-020, 1.000000000000000000 ) ) ;
#78 = FACE_OUTER_BOUND ( 'NONE', #166, .T. ) ;
#79 = ADVANCED_FACE ( 'NONE', ( #78 ), #34, .T. ) ;
#80 = FILL_AREA_STYLE_COLOUR ( '', #164 ) ;
#81 = EDGE_CURVE ( 'NONE', #163, #76, #123, .T. ) ;
#82 = APPLICATION_PROTOCOL_DEFINITION ( 'draft international standard', 'automotive_design', 1998, #174 ) ;
#83 = VECTOR ( 'NONE', #44, 1000.000000000000000 ) ;
#84 = PRODUCT_DEFINITION ( 'UNKNOWN', '', #144, #131 ) ;
#85 = PRODUCT ( '03-0271', '03-0271', '', ( #49 ) ) ;
#86 = ADVANCED_FACE ( 'NONE', ( #71 ), #41, .T. ) ;
#87 = VERTEX_POINT ( 'NONE', #5 ) ;
#88 = PRESENTATION_STYLE_ASSIGNMENT (( #100 ) ) ;
#89 = VECTOR ( 'NONE', #173, 1000.000000000000000 ) ;
#90 = AXIS2_PLACEMENT_3D ( 'NONE', #6, #77, #99 ) ;
#91 = ORIENTED_EDGE ( 'NONE', *, *, #64, .F. ) ;
#92 = AXIS2_PLACEMENT_3D ( 'NONE', #179, #151, #213 ) ;
#93 = SURFACE_STYLE_FILL_AREA ( #201 ) ;
#94 = ORIENTED_EDGE ( 'NONE', *, *, #11, .F. ) ;
#95 = LINE ( 'NONE', #184, #89 ) ;
#96 = DIRECTION ( 'NONE',  ( -0.0000000000000000000, 1.634542157601623100E-020, 1.000000000000000000 ) ) ;
#97 = CARTESIAN_POINT ( 'NONE',  ( 0.0000000000000000000, -1.253824598253085400E-020, -0.7670800000000197500 ) ) ;
#98 = VERTEX_POINT ( 'NONE', #39 ) ;
#99 = DIRECTION ( 'NONE',  ( 0.0000000000000000000, -1.000000000000000000, 1.634542157601623100E-020 ) ) ;
#100 = SURFACE_STYLE_USAGE ( .BOTH. , #3 ) ;
#101 = CARTESIAN_POINT ( 'NONE',  ( 0.0000000000000000000, 3.839243059648062800E-036, 2.348818622874442300E-016 ) ) ;
#102 = CARTESIAN_POINT ( 'NONE',  ( 0.0000000000000000000, -3.835400000000015000, -111.1250000000000000 ) ) ;
#103 = FILL_AREA_STYLE_COLOUR ( '', #63 ) ;
#104 = ORIENTED_EDGE ( 'NONE', *, *, #74, .T. ) ;
#105 = AXIS2_PLACEMENT_3D ( 'NONE', #36, #193, #54 ) ;
#106 = CARTESIAN_POINT ( 'NONE',  ( 0.0000000000000000000, -1.842352530306474800E-018, -112.7136746971258000 ) ) ;
#107 = EDGE_CURVE ( 'NONE', #35, #87, #156, .T. ) ;
#108 = AXIS2_PLACEMENT_3D ( 'NONE', #139, #141, #48 ) ;
#109 = CONICAL_SURFACE ( 'NONE', #158, 3.068319999999985300, 0.7853981633974488300 ) ;
#110 = AXIS2_PLACEMENT_3D ( 'NONE', #97, #24, #59 ) ;
#111 = DIRECTION ( 'NONE',  ( -0.0000000000000000000, 1.634542157601623100E-020, 1.000000000000000000 ) ) ;
#112 = CARTESIAN_POINT ( 'NONE',  ( 0.0000000000000000000, 3.068319999999985300, 2.348317093035141100E-016 ) ) ;
#113 = DIRECTION ( 'NONE',  ( 0.0000000000000000000, -1.000000000000000000, 0.0000000000000000000 ) ) ;
#114 = PLANE ( 'NONE',  #145 ) ;
#115 = FACE_OUTER_BOUND ( 'NONE', #28, .T. ) ;
#116 = LINE ( 'NONE', #149, #165 ) ;
#117 = ORIENTED_EDGE ( 'NONE', *, *, #37, .F. ) ;
#118 = UNCERTAINTY_MEASURE_WITH_UNIT (LENGTH_MEASURE( 1.000000000000000100E-005 ), #26, 'distance_accuracy_value', 'NONE');
#119 = LINE ( 'NONE', #168, #147 ) ;
#120 = AXIS2_PLACEMENT_3D ( 'NONE', #1, #53, #196 ) ;
#121 = ORIENTED_EDGE ( 'NONE', *, *, #125, .T. ) ;
#122 = LINE ( 'NONE', #112, #21 ) ;
#123 = CIRCLE ( 'NONE', #211, 3.068319999999985300 ) ;
#124 = DIRECTION ( 'NONE',  ( 0.0000000000000000000, -1.634542157601623100E-020, -1.000000000000000000 ) ) ;
#125 = EDGE_CURVE ( 'NONE', #35, #207, #95, .T. ) ;
#126 = EDGE_LOOP ( 'NONE', ( #40, #20, #202, #178 ) ) ;
#127 =( LENGTH_UNIT ( ) NAMED_UNIT ( * ) SI_UNIT ( .MILLI., .METRE. ) );
#128 = CIRCLE ( 'NONE', #171, 3.835400000000013200 ) ;
#129 = CARTESIAN_POINT ( 'NONE',  ( 0.0000000000000000000, 3.839243059648064200E-036, 2.348818622874442300E-016 ) ) ;
#130 = CONICAL_SURFACE ( 'NONE', #10, 2414.213562373056900, 1.178097245096166900 ) ;
#131 = PRODUCT_DEFINITION_CONTEXT ( 'detailed design', #174, 'design' ) ;
#132 = ORIENTED_EDGE ( 'NONE', *, *, #161, .T. ) ;
#133 = FACE_OUTER_BOUND ( 'NONE', #176, .T. ) ;
#134 = ORIENTED_EDGE ( 'NONE', *, *, #107, .T. ) ;
#135 = EDGE_CURVE ( 'NONE', #98, #198, #162, .T. ) ;
#136 = DIRECTION ( 'NONE',  ( -0.0000000000000000000, 1.634542157601623100E-020, 1.000000000000000000 ) ) ;
#137 = ORIENTED_EDGE ( 'NONE', *, *, #74, .F. ) ;
#138 = AXIS2_PLACEMENT_3D ( 'NONE', #150, #72, #180 ) ;
#139 = CARTESIAN_POINT ( 'NONE',  ( 0.0000000000000000000, 0.0000000000000000000, 0.0000000000000000000 ) ) ;
#140 = CARTESIAN_POINT ( 'NONE',  ( 0.0000000000000000000, 3.068319999999985300, 2.348317093035141100E-016 ) ) ;
#141 = DIRECTION ( 'NONE',  ( 0.0000000000000000000, 0.0000000000000000000, 1.000000000000000000 ) ) ;
#142 = FILL_AREA_STYLE ('',( #103 ) ) ;
#143 = ADVANCED_FACE ( 'NONE', ( #190 ), #130, .T. ) ;
#144 = PRODUCT_DEFINITION_FORMATION_WITH_SPECIFIED_SOURCE ( 'ANY', '', #85, .NOT_KNOWN. ) ;
#145 = AXIS2_PLACEMENT_3D ( 'NONE', #186, #38, #203 ) ;
#146 = SURFACE_STYLE_FILL_AREA ( #142 ) ;
#147 = VECTOR ( 'NONE', #55, 1000.000000000000000 ) ;
#148 = STYLED_ITEM ( 'NONE', ( #88 ), #185 ) ;
#149 = CARTESIAN_POINT ( 'NONE',  ( 4.697010333449766600E-016, 3.835400000000006100, -6.269122991265275200E-020 ) ) ;
#150 = CARTESIAN_POINT ( 'NONE',  ( 0.0000000000000000000, -1.816384972634803700E-018, -111.1250000000000000 ) ) ;
#151 = DIRECTION ( 'NONE',  ( -0.0000000000000000000, 1.634542157601623100E-020, 1.000000000000000000 ) ) ;
#152 = UNCERTAINTY_MEASURE_WITH_UNIT (LENGTH_MEASURE( 1.000000000000000100E-005 ), #18, 'distance_accuracy_value', 'NONE');
#153 = FACE_OUTER_BOUND ( 'NONE', #17, .T. ) ;
#154 = DIRECTION ( 'NONE',  ( 0.0000000000000000000, 1.000000000000000000, -1.634542157601500300E-020 ) ) ;
#155 =( NAMED_UNIT ( * ) PLANE_ANGLE_UNIT ( ) SI_UNIT ( $, .RADIAN. ) );
#156 = LINE ( 'NONE', #23, #208 ) ;
#157 = DIRECTION ( 'NONE',  ( -0.0000000000000000000, 1.634542157601623100E-020, 1.000000000000000000 ) ) ;
#158 = AXIS2_PLACEMENT_3D ( 'NONE', #129, #22, #62 ) ;
#159 =( NAMED_UNIT ( * ) SI_UNIT ( $, .STERADIAN. ) SOLID_ANGLE_UNIT ( ) );
#160 = ORIENTED_EDGE ( 'NONE', *, *, #177, .F. ) ;
#161 = EDGE_CURVE ( 'NONE', #76, #98, #12, .T. ) ;
#162 = CIRCLE ( 'NONE', #110, 3.835400000000006100 ) ;
#163 = VERTEX_POINT ( 'NONE', #140 ) ;
#164 = COLOUR_RGB ( '',0.7921568627450980000, 0.8196078431372548800, 0.9333333333333333500 ) ;
#165 = VECTOR ( 'NONE', #96, 1000.000000000000000 ) ;
#166 = EDGE_LOOP ( 'NONE', ( #68, #191, #65, #117 ) ) ;
#167 = CARTESIAN_POINT ( 'NONE',  ( 0.0000000000000000000, -1.816384972634803700E-018, -111.1250000000000000 ) ) ;
#168 = CARTESIAN_POINT ( 'NONE',  ( 0.0000000000000000000, -3.835400000000006100, 6.269122991265275200E-020 ) ) ;
#169 = APPLICATION_PROTOCOL_DEFINITION ( 'draft international standard', 'automotive_design', 1998, #58 ) ;
#170 = ORIENTED_EDGE ( 'NONE', *, *, #69, .F. ) ;
#171 = AXIS2_PLACEMENT_3D ( 'NONE', #167, #136, #15 ) ;
#172 = DIRECTION ( 'NONE',  ( 0.0000000000000000000, -1.000000000000000000, 0.0000000000000000000 ) ) ;
#173 = DIRECTION ( 'NONE',  ( 0.0000000000000000000, -0.9238795325112846300, 0.3826834323650950000 ) ) ;
#174 = APPLICATION_CONTEXT ( 'automotive_design' ) ;
#175 = ADVANCED_FACE ( 'NONE', ( #133 ), #32, .T. ) ;
#176 = EDGE_LOOP ( 'NONE', ( #170, #104, #9, #70 ) ) ;
#177 = EDGE_CURVE ( 'NONE', #163, #198, #122, .T. ) ;
#178 = ORIENTED_EDGE ( 'NONE', *, *, #135, .F. ) ;
#179 = CARTESIAN_POINT ( 'NONE',  ( 0.0000000000000000000, 3.839243059648062800E-036, 2.348818622874442300E-016 ) ) ;
#180 = DIRECTION ( 'NONE',  ( 0.0000000000000000000, -1.000000000000000000, 0.0000000000000000000 ) ) ;
#181 = CARTESIAN_POINT ( 'NONE',  ( 0.0000000000000000000, 3.839243059648064200E-036, 2.348818622874442300E-016 ) ) ;
#182 = CARTESIAN_POINT ( 'NONE',  ( 0.0000000000000000000, 1.450306904570975600E-017, 887.2863253028741600 ) ) ;
#183 = FACE_OUTER_BOUND ( 'NONE', #126, .T. ) ;
#184 = CARTESIAN_POINT ( 'NONE',  ( 0.0000000000000000000, -1.842352530306474800E-018, -112.7136746971258000 ) ) ;
#185 = MANIFOLD_SOLID_BREP ( '¸ðµû±â1', #51 ) ;
#186 = CARTESIAN_POINT ( 'NONE',  ( 0.0000000000000000000, 3.835399999999999500, 2.348191710575315900E-016 ) ) ;
#187 = PRESENTATION_LAYER_ASSIGNMENT (  '', '', ( #148 ) ) ;
#188 = ADVANCED_FACE ( 'NONE', ( #115 ), #114, .F. ) ;
#189 = PRESENTATION_STYLE_ASSIGNMENT (( #25 ) ) ;
#190 = FACE_OUTER_BOUND ( 'NONE', #210, .T. ) ;
#191 = ORIENTED_EDGE ( 'NONE', *, *, #69, .T. ) ;
#192 = CONICAL_SURFACE ( 'NONE', #200, 3.068319999999985300, 0.7853981633974488300 ) ;
#193 = DIRECTION ( 'NONE',  ( 0.0000000000000000000, -1.634542157601623100E-020, -1.000000000000000000 ) ) ;
#194 = ORIENTED_EDGE ( 'NONE', *, *, #81, .T. ) ;
#195 =( GEOMETRIC_REPRESENTATION_CONTEXT ( 3 ) GLOBAL_UNCERTAINTY_ASSIGNED_CONTEXT ( ( #209 ) ) GLOBAL_UNIT_ASSIGNED_CONTEXT ( ( #127, #43, #7 ) ) REPRESENTATION_CONTEXT ( 'NONE', 'WORKASPACE' ) );
#196 = DIRECTION ( 'NONE',  ( 0.0000000000000000000, -1.000000000000000000, 1.634542157601623100E-020 ) ) ;
#197 = PRESENTATION_LAYER_ASSIGNMENT (  '', '', ( #56 ) ) ;
#198 = VERTEX_POINT ( 'NONE', #75 ) ;
#199 = CARTESIAN_POINT ( 'NONE',  ( 3.757608266759788400E-016, -3.068319999999985300, 2.349320152713743500E-016 ) ) ;
#200 = AXIS2_PLACEMENT_3D ( 'NONE', #181, #124, #214 ) ;
#201 = FILL_AREA_STYLE ('',( #80 ) ) ;
#202 = ORIENTED_EDGE ( 'NONE', *, *, #177, .T. ) ;
#203 = DIRECTION ( 'NONE',  ( 0.0000000000000000000, 1.000000000000000000, -1.634542157601623100E-020 ) ) ;
#204 = ORIENTED_EDGE ( 'NONE', *, *, #125, .F. ) ;
#205 =( NAMED_UNIT ( * ) PLANE_ANGLE_UNIT ( ) SI_UNIT ( $, .RADIAN. ) );
#206 = ADVANCED_FACE ( 'NONE', ( #183 ), #109, .T. ) ;
#207 = VERTEX_POINT ( 'NONE', #102 ) ;
#208 = VECTOR ( 'NONE', #61, 1000.000000000000000 ) ;
#209 = UNCERTAINTY_MEASURE_WITH_UNIT (LENGTH_MEASURE( 1.000000000000000100E-005 ), #127, 'distance_accuracy_value', 'NONE');
#210 = EDGE_LOOP ( 'NONE', ( #57, #121, #137 ) ) ;
#211 = AXIS2_PLACEMENT_3D ( 'NONE', #101, #4, #154 ) ;
#212 = CARTESIAN_POINT ( 'NONE',  ( 4.227309300104777000E-016, -3.068319999999985300, 2.349320152713743500E-016 ) ) ;
#213 = DIRECTION ( 'NONE',  ( 0.0000000000000000000, 1.000000000000000000, -1.634542157601500300E-020 ) ) ;
#214 = DIRECTION ( 'NONE',  ( 0.0000000000000000000, 1.000000000000000000, -1.634542157601500300E-020 ) ) ;
ENDSEC;
END-ISO-10303-21;
