ISO-10303-21;
HEADER;
FILE_DESCRIPTION (( 'STEP AP214' ),
    '1' );
FILE_NAME ('03-0274.STEP',
    '2020-07-23T06:11:45',
    ( '' ),
    ( '' ),
    'SwSTEP 2.0',
    'SolidWorks 2014',
    '' );
FILE_SCHEMA (( 'AUTOMOTIVE_DESIGN' ));
ENDSEC;

DATA;
#1 = CARTESIAN_POINT ( 'NONE',  ( 0.0000000000000000000, 1.300189929215176000E-017, -120.6499999999999900 ) ) ;
#2 = FILL_AREA_STYLE_COLOUR ( '', #140 ) ;
#3 = CARTESIAN_POINT ( 'NONE',  ( 0.0000000000000000000, -2.779839983670491400E-035, 2.579528471138768600E-016 ) ) ;
#4 = DIRECTION ( 'NONE',  ( 0.0000000000000000000, 1.000000000000000000, 0.0000000000000000000 ) ) ;
#5 = EDGE_CURVE ( 'NONE', #23, #77, #29, .T. ) ;
#6 = ORIENTED_EDGE ( 'NONE', *, *, #22, .T. ) ;
#7 = AXIS2_PLACEMENT_3D ( 'NONE', #16, #136, #65 ) ;
#8 = PRODUCT ( '03-0274', '03-0274', '', ( #19 ) ) ;
#9 = DIRECTION ( 'NONE',  ( -0.0000000000000000000, -1.077654313481289700E-019, 1.000000000000000000 ) ) ;
#10 = EDGE_CURVE ( 'NONE', #61, #28, #73, .T. ) ;
#11 = CARTESIAN_POINT ( 'NONE',  ( 0.0000000000000000000, 3.373119999999965500, 2.583163528456658700E-016 ) ) ;
#12 =( NAMED_UNIT ( * ) SI_UNIT ( $, .STERADIAN. ) SOLID_ANGLE_UNIT ( ) );
#13 = DIRECTION ( 'NONE',  ( 1.131426112287698800E-016, 0.9238795325112855200, 0.3826834323650928900 ) ) ;
#14 = ORIENTED_EDGE ( 'NONE', *, *, #175, .T. ) ;
#15 = ORIENTED_EDGE ( 'NONE', *, *, #139, .F. ) ;
#16 = CARTESIAN_POINT ( 'NONE',  ( 0.0000000000000000000, 9.087643294725597900E-020, -0.8432800000000536500 ) ) ;
#17 =( NAMED_UNIT ( * ) SI_UNIT ( $, .STERADIAN. ) SOLID_ANGLE_UNIT ( ) );
#18 = PRESENTATION_LAYER_ASSIGNMENT (  '', '', ( #202 ) ) ;
#19 = PRODUCT_CONTEXT ( 'NONE', #146, 'mechanical' ) ;
#20 = CONICAL_SURFACE ( 'NONE', #101, 3.373119999999965500, 0.7853981633974416200 ) ;
#21 = ADVANCED_FACE ( 'NONE', ( #37 ), #49, .T. ) ;
#22 = EDGE_CURVE ( 'NONE', #42, #23, #147, .T. ) ;
#23 = VERTEX_POINT ( 'NONE', #11 ) ;
#24 = ORIENTED_EDGE ( 'NONE', *, *, #5, .F. ) ;
#25 = LINE ( 'NONE', #35, #148 ) ;
#26 = AXIS2_PLACEMENT_3D ( 'NONE', #150, #167, #122 ) ;
#27 = CONICAL_SURFACE ( 'NONE', #169, 2414.213562373071900, 1.178097245096169100 ) ;
#28 = VERTEX_POINT ( 'NONE', #83 ) ;
#29 = LINE ( 'NONE', #46, #157 ) ;
#30 = LINE ( 'NONE', #142, #127 ) ;
#31 = DIRECTION ( 'NONE',  ( 0.0000000000000000000, 0.7071067811865428000, -0.7071067811865522400 ) ) ;
#32 = ORIENTED_EDGE ( 'NONE', *, *, #10, .F. ) ;
#33 = DIRECTION ( 'NONE',  ( -0.0000000000000000000, -1.077654313481289700E-019, 1.000000000000000000 ) ) ;
#34 = MECHANICAL_DESIGN_GEOMETRIC_PRESENTATION_REPRESENTATION (  '', ( #93 ), #43 ) ;
#35 = CARTESIAN_POINT ( 'NONE',  ( 0.0000000000000000000, 1.319011054728596300E-017, -122.3964900643899400 ) ) ;
#36 = CARTESIAN_POINT ( 'NONE',  ( 0.0000000000000000000, -9.457532080084300500E-017, 877.6035099356100800 ) ) ;
#37 = FACE_OUTER_BOUND ( 'NONE', #105, .T. ) ;
#38 = ORIENTED_EDGE ( 'NONE', *, *, #92, .T. ) ;
#39 = CIRCLE ( 'NONE', #99, 4.216400000000016100 ) ;
#40 = DIRECTION ( 'NONE',  ( 0.0000000000000000000, 1.077654313481289700E-019, -1.000000000000000000 ) ) ;
#41 = DIRECTION ( 'NONE',  ( 0.0000000000000000000, 1.000000000000000000, 1.077654313481339300E-019 ) ) ;
#42 = VERTEX_POINT ( 'NONE', #177 ) ;
#43 =( GEOMETRIC_REPRESENTATION_CONTEXT ( 3 ) GLOBAL_UNCERTAINTY_ASSIGNED_CONTEXT ( ( #174 ) ) GLOBAL_UNIT_ASSIGNED_CONTEXT ( ( #89, #138, #170 ) ) REPRESENTATION_CONTEXT ( 'NONE', 'WORKASPACE' ) );
#44 = DIRECTION ( 'NONE',  ( 0.0000000000000000000, 1.000000000000000000, 1.077654313481339300E-019 ) ) ;
#45 = CARTESIAN_POINT ( 'NONE',  ( 5.163600763924910200E-016, 4.216400000000008100, 4.543821647362518500E-019 ) ) ;
#46 = CARTESIAN_POINT ( 'NONE',  ( 0.0000000000000000000, 3.373119999999965500, 2.583163528456658700E-016 ) ) ;
#47 = DIRECTION ( 'NONE',  ( -0.0000000000000000000, -1.077654313481289700E-019, 1.000000000000000000 ) ) ;
#48 = EDGE_CURVE ( 'NONE', #61, #77, #118, .T. ) ;
#49 = CONICAL_SURFACE ( 'NONE', #58, 2414.213562373071900, 1.178097245096169100 ) ;
#50 =( LENGTH_UNIT ( ) NAMED_UNIT ( * ) SI_UNIT ( .MILLI., .METRE. ) );
#51 = SURFACE_SIDE_STYLE ('',( #71 ) ) ;
#52 = ADVANCED_FACE ( 'NONE', ( #109 ), #179, .F. ) ;
#53 = DIRECTION ( 'NONE',  ( -0.0000000000000000000, -1.077654313481289700E-019, 1.000000000000000000 ) ) ;
#54 = SHAPE_DEFINITION_REPRESENTATION ( #188, #114 ) ;
#55 = DIRECTION ( 'NONE',  ( 1.000000000000000000, 0.0000000000000000000, 0.0000000000000000000 ) ) ;
#56 = APPLICATION_CONTEXT ( 'automotive_design' ) ;
#57 = CIRCLE ( 'NONE', #128, 3.373119999999965500 ) ;
#58 = AXIS2_PLACEMENT_3D ( 'NONE', #115, #82, #131 ) ;
#59 = PRESENTATION_STYLE_ASSIGNMENT (( #198 ) ) ;
#60 = ORIENTED_EDGE ( 'NONE', *, *, #144, .F. ) ;
#61 = VERTEX_POINT ( 'NONE', #113 ) ;
#62 = VECTOR ( 'NONE', #121, 1000.000000000000200 ) ;
#63 = ORIENTED_EDGE ( 'NONE', *, *, #144, .T. ) ;
#64 = DIRECTION ( 'NONE',  ( 0.0000000000000000000, 1.000000000000000000, 1.077654313481289700E-019 ) ) ;
#65 = DIRECTION ( 'NONE',  ( 0.0000000000000000000, 1.000000000000000000, 0.0000000000000000000 ) ) ;
#66 = ORIENTED_EDGE ( 'NONE', *, *, #139, .T. ) ;
#67 = ORIENTED_EDGE ( 'NONE', *, *, #178, .F. ) ;
#68 = CIRCLE ( 'NONE', #7, 4.216400000000008100 ) ;
#69 = AXIS2_PLACEMENT_3D ( 'NONE', #96, #141, #64 ) ;
#70 =( NAMED_UNIT ( * ) PLANE_ANGLE_UNIT ( ) SI_UNIT ( $, .RADIAN. ) );
#71 = SURFACE_STYLE_FILL_AREA ( #119 ) ;
#72 = CLOSED_SHELL ( 'NONE', ( #173, #171, #205, #52, #21, #125, #203 ) ) ;
#73 = CIRCLE ( 'NONE', #156, 4.216400000000016100 ) ;
#74 = CYLINDRICAL_SURFACE ( 'NONE', #110, 4.216400000000008100 ) ;
#75 = ORIENTED_EDGE ( 'NONE', *, *, #22, .F. ) ;
#76 = AXIS2_PLACEMENT_3D ( 'NONE', #137, #186, #55 ) ;
#77 = VERTEX_POINT ( 'NONE', #95 ) ;
#78 = EDGE_LOOP ( 'NONE', ( #38, #190, #165, #108 ) ) ;
#79 = UNCERTAINTY_MEASURE_WITH_UNIT (LENGTH_MEASURE( 1.000000000000000100E-005 ), #50, 'distance_accuracy_value', 'NONE');
#80 = FACE_OUTER_BOUND ( 'NONE', #206, .T. ) ;
#81 = EDGE_CURVE ( 'NONE', #28, #151, #30, .T. ) ;
#82 = DIRECTION ( 'NONE',  ( -0.0000000000000000000, -1.077654313481289700E-019, 1.000000000000000000 ) ) ;
#83 = CARTESIAN_POINT ( 'NONE',  ( 0.0000000000000000000, -4.216400000000015200, -120.6499999999999900 ) ) ;
#84 = DIRECTION ( 'NONE',  ( -0.0000000000000000000, -1.077654313481289700E-019, 1.000000000000000000 ) ) ;
#85 = AXIS2_PLACEMENT_3D ( 'NONE', #97, #183, #4 ) ;
#86 =( NAMED_UNIT ( * ) PLANE_ANGLE_UNIT ( ) SI_UNIT ( $, .RADIAN. ) );
#87 = SURFACE_SIDE_STYLE ('',( #194 ) ) ;
#88 = PRODUCT_DEFINITION ( 'UNKNOWN', '', #94, #209 ) ;
#89 =( LENGTH_UNIT ( ) NAMED_UNIT ( * ) SI_UNIT ( .MILLI., .METRE. ) );
#90 = ORIENTED_EDGE ( 'NONE', *, *, #92, .F. ) ;
#91 = AXIS2_PLACEMENT_3D ( 'NONE', #161, #84, #44 ) ;
#92 = EDGE_CURVE ( 'NONE', #28, #61, #39, .T. ) ;
#93 = STYLED_ITEM ( 'NONE', ( #152 ), #114 ) ;
#94 = PRODUCT_DEFINITION_FORMATION_WITH_SPECIFIED_SOURCE ( 'ANY', '', #8, .NOT_KNOWN. ) ;
#95 = CARTESIAN_POINT ( 'NONE',  ( 5.163600763924910200E-016, 4.216400000000008100, -0.8432800000000536500 ) ) ;
#96 = CARTESIAN_POINT ( 'NONE',  ( 0.0000000000000000000, 4.216400000000000100, 2.584072292786131300E-016 ) ) ;
#97 = CARTESIAN_POINT ( 'NONE',  ( 0.0000000000000000000, 9.087643294725597900E-020, -0.8432800000000536500 ) ) ;
#98 = SURFACE_STYLE_USAGE ( .BOTH. , #51 ) ;
#99 = AXIS2_PLACEMENT_3D ( 'NONE', #213, #9, #134 ) ;
#100 = APPLICATION_PROTOCOL_DEFINITION ( 'draft international standard', 'automotive_design', 1998, #146 ) ;
#101 = AXIS2_PLACEMENT_3D ( 'NONE', #182, #40, #181 ) ;
#102 = DIRECTION ( 'NONE',  ( -0.0000000000000000000, -1.077654313481289700E-019, 1.000000000000000000 ) ) ;
#103 = CONICAL_SURFACE ( 'NONE', #26, 3.373119999999965500, 0.7853981633974416200 ) ;
#104 = CYLINDRICAL_SURFACE ( 'NONE', #212, 4.216400000000008100 ) ;
#105 = EDGE_LOOP ( 'NONE', ( #126, #176, #32 ) ) ;
#106 = FACE_OUTER_BOUND ( 'NONE', #155, .T. ) ;
#107 = ORIENTED_EDGE ( 'NONE', *, *, #193, .F. ) ;
#108 = ORIENTED_EDGE ( 'NONE', *, *, #81, .F. ) ;
#109 = FACE_OUTER_BOUND ( 'NONE', #200, .T. ) ;
#110 = AXIS2_PLACEMENT_3D ( 'NONE', #159, #191, #192 ) ;
#111 =( GEOMETRIC_REPRESENTATION_CONTEXT ( 3 ) GLOBAL_UNCERTAINTY_ASSIGNED_CONTEXT ( ( #79 ) ) GLOBAL_UNIT_ASSIGNED_CONTEXT ( ( #50, #70, #12 ) ) REPRESENTATION_CONTEXT ( 'NONE', 'WORKASPACE' ) );
#112 = ORIENTED_EDGE ( 'NONE', *, *, #5, .T. ) ;
#113 = CARTESIAN_POINT ( 'NONE',  ( 5.163600763924919000E-016, 4.216400000000015200, -120.6499999999999900 ) ) ;
#114 = ADVANCED_BREP_SHAPE_REPRESENTATION ( '03-0274', ( #214, #76 ), #129 ) ;
#115 = CARTESIAN_POINT ( 'NONE',  ( 0.0000000000000000000, -9.457532080084300500E-017, 877.6035099356100800 ) ) ;
#116 = PRESENTATION_LAYER_ASSIGNMENT (  '', '', ( #93 ) ) ;
#117 = ORIENTED_EDGE ( 'NONE', *, *, #81, .T. ) ;
#118 = LINE ( 'NONE', #45, #153 ) ;
#119 = FILL_AREA_STYLE ('',( #195 ) ) ;
#120 = LINE ( 'NONE', #133, #62 ) ;
#121 = DIRECTION ( 'NONE',  ( 0.0000000000000000000, -0.9238795325112855200, 0.3826834323650928900 ) ) ;
#122 = DIRECTION ( 'NONE',  ( 0.0000000000000000000, 1.000000000000000000, 1.077654313481339300E-019 ) ) ;
#123 = ORIENTED_EDGE ( 'NONE', *, *, #193, .T. ) ;
#124 = DIRECTION ( 'NONE',  ( 0.0000000000000000000, -1.000000000000000000, -1.077654313481289700E-019 ) ) ;
#125 = ADVANCED_FACE ( 'NONE', ( #80 ), #74, .T. ) ;
#126 = ORIENTED_EDGE ( 'NONE', *, *, #175, .F. ) ;
#127 = VECTOR ( 'NONE', #47, 1000.000000000000000 ) ;
#128 = AXIS2_PLACEMENT_3D ( 'NONE', #3, #135, #41 ) ;
#129 =( GEOMETRIC_REPRESENTATION_CONTEXT ( 3 ) GLOBAL_UNCERTAINTY_ASSIGNED_CONTEXT ( ( #130 ) ) GLOBAL_UNIT_ASSIGNED_CONTEXT ( ( #149, #86, #17 ) ) REPRESENTATION_CONTEXT ( 'NONE', 'WORKASPACE' ) );
#130 = UNCERTAINTY_MEASURE_WITH_UNIT (LENGTH_MEASURE( 1.000000000000000100E-005 ), #149, 'distance_accuracy_value', 'NONE');
#131 = DIRECTION ( 'NONE',  ( 0.0000000000000000000, -1.000000000000000000, 0.0000000000000000000 ) ) ;
#132 = ORIENTED_EDGE ( 'NONE', *, *, #185, .F. ) ;
#133 = CARTESIAN_POINT ( 'NONE',  ( 0.0000000000000000000, 1.319011054728596300E-017, -122.3964900643899400 ) ) ;
#134 = DIRECTION ( 'NONE',  ( 0.0000000000000000000, -1.000000000000000000, 0.0000000000000000000 ) ) ;
#135 = DIRECTION ( 'NONE',  ( -0.0000000000000000000, -1.077654313481289700E-019, 1.000000000000000000 ) ) ;
#136 = DIRECTION ( 'NONE',  ( 0.0000000000000000000, 1.077654313481289700E-019, -1.000000000000000000 ) ) ;
#137 = CARTESIAN_POINT ( 'NONE',  ( 0.0000000000000000000, 0.0000000000000000000, 0.0000000000000000000 ) ) ;
#138 =( NAMED_UNIT ( * ) PLANE_ANGLE_UNIT ( ) SI_UNIT ( $, .RADIAN. ) );
#139 = EDGE_CURVE ( 'NONE', #42, #151, #158, .T. ) ;
#140 = COLOUR_RGB ( '',0.7921568627450980000, 0.8196078431372548800, 0.9333333333333333500 ) ;
#141 = DIRECTION ( 'NONE',  ( 0.0000000000000000000, 1.077654313481289700E-019, -1.000000000000000000 ) ) ;
#142 = CARTESIAN_POINT ( 'NONE',  ( 0.0000000000000000000, -4.216400000000008100, -4.543821647362518500E-019 ) ) ;
#143 = COLOUR_RGB ( '',0.7921568627450980000, 0.8196078431372548800, 0.9333333333333333500 ) ;
#144 = EDGE_CURVE ( 'NONE', #151, #77, #208, .T. ) ;
#145 = DIRECTION ( 'NONE',  ( 0.0000000000000000000, -1.000000000000000000, 0.0000000000000000000 ) ) ;
#146 = APPLICATION_CONTEXT ( 'automotive_design' ) ;
#147 = CIRCLE ( 'NONE', #91, 3.373119999999965500 ) ;
#148 = VECTOR ( 'NONE', #13, 1000.000000000000200 ) ;
#149 =( LENGTH_UNIT ( ) NAMED_UNIT ( * ) SI_UNIT ( .MILLI., .METRE. ) );
#150 = CARTESIAN_POINT ( 'NONE',  ( 0.0000000000000000000, -2.779839983670490300E-035, 2.579528471138768600E-016 ) ) ;
#151 = VERTEX_POINT ( 'NONE', #199 ) ;
#152 = PRESENTATION_STYLE_ASSIGNMENT (( #98 ) ) ;
#153 = VECTOR ( 'NONE', #163, 1000.000000000000000 ) ;
#154 = VECTOR ( 'NONE', #201, 1000.000000000000000 ) ;
#155 = EDGE_LOOP ( 'NONE', ( #15, #107, #112, #60 ) ) ;
#156 = AXIS2_PLACEMENT_3D ( 'NONE', #1, #33, #180 ) ;
#157 = VECTOR ( 'NONE', #31, 1000.000000000000000 ) ;
#158 = LINE ( 'NONE', #164, #154 ) ;
#159 = CARTESIAN_POINT ( 'NONE',  ( 0.0000000000000000000, 0.0000000000000000000, 0.0000000000000000000 ) ) ;
#160 = EDGE_LOOP ( 'NONE', ( #75, #66, #67, #24 ) ) ;
#161 = CARTESIAN_POINT ( 'NONE',  ( 0.0000000000000000000, -2.779839983670491400E-035, 2.579528471138768600E-016 ) ) ;
#162 = PRODUCT_RELATED_PRODUCT_CATEGORY ( 'part', '', ( #8 ) ) ;
#163 = DIRECTION ( 'NONE',  ( -0.0000000000000000000, -1.077654313481289700E-019, 1.000000000000000000 ) ) ;
#164 = CARTESIAN_POINT ( 'NONE',  ( 4.130880611139877800E-016, -3.373119999999965500, 2.575893413820878400E-016 ) ) ;
#165 = ORIENTED_EDGE ( 'NONE', *, *, #178, .T. ) ;
#166 = CARTESIAN_POINT ( 'NONE',  ( 0.0000000000000000000, 0.0000000000000000000, 0.0000000000000000000 ) ) ;
#167 = DIRECTION ( 'NONE',  ( 0.0000000000000000000, 1.077654313481289700E-019, -1.000000000000000000 ) ) ;
#168 = FILL_AREA_STYLE ('',( #2 ) ) ;
#169 = AXIS2_PLACEMENT_3D ( 'NONE', #36, #53, #145 ) ;
#170 =( NAMED_UNIT ( * ) SI_UNIT ( $, .STERADIAN. ) SOLID_ANGLE_UNIT ( ) );
#171 = ADVANCED_FACE ( 'NONE', ( #189 ), #104, .T. ) ;
#172 = ORIENTED_EDGE ( 'NONE', *, *, #10, .T. ) ;
#173 = ADVANCED_FACE ( 'NONE', ( #197 ), #103, .T. ) ;
#174 = UNCERTAINTY_MEASURE_WITH_UNIT (LENGTH_MEASURE( 1.000000000000000100E-005 ), #89, 'distance_accuracy_value', 'NONE');
#175 = EDGE_CURVE ( 'NONE', #207, #61, #25, .T. ) ;
#176 = ORIENTED_EDGE ( 'NONE', *, *, #185, .T. ) ;
#177 = CARTESIAN_POINT ( 'NONE',  ( 4.647240687532394000E-016, -3.373119999999965500, 2.575893413820878400E-016 ) ) ;
#178 = EDGE_CURVE ( 'NONE', #77, #151, #68, .T. ) ;
#179 = PLANE ( 'NONE',  #69 ) ;
#180 = DIRECTION ( 'NONE',  ( 0.0000000000000000000, -1.000000000000000000, 0.0000000000000000000 ) ) ;
#181 = DIRECTION ( 'NONE',  ( 0.0000000000000000000, 1.000000000000000000, 1.077654313481339300E-019 ) ) ;
#182 = CARTESIAN_POINT ( 'NONE',  ( 0.0000000000000000000, -2.779839983670490300E-035, 2.579528471138768600E-016 ) ) ;
#183 = DIRECTION ( 'NONE',  ( 0.0000000000000000000, 1.077654313481289700E-019, -1.000000000000000000 ) ) ;
#184 = CARTESIAN_POINT ( 'NONE',  ( 0.0000000000000000000, 1.319011054728596300E-017, -122.3964900643899400 ) ) ;
#185 = EDGE_CURVE ( 'NONE', #207, #28, #120, .T. ) ;
#186 = DIRECTION ( 'NONE',  ( 0.0000000000000000000, 0.0000000000000000000, 1.000000000000000000 ) ) ;
#187 = FACE_OUTER_BOUND ( 'NONE', #211, .T. ) ;
#188 = PRODUCT_DEFINITION_SHAPE ( 'NONE', 'NONE',  #88 ) ;
#189 = FACE_OUTER_BOUND ( 'NONE', #78, .T. ) ;
#190 = ORIENTED_EDGE ( 'NONE', *, *, #48, .T. ) ;
#191 = DIRECTION ( 'NONE',  ( -0.0000000000000000000, -1.077654313481289700E-019, 1.000000000000000000 ) ) ;
#192 = DIRECTION ( 'NONE',  ( 0.0000000000000000000, -1.000000000000000000, -1.077654313481289700E-019 ) ) ;
#193 = EDGE_CURVE ( 'NONE', #23, #42, #57, .T. ) ;
#194 = SURFACE_STYLE_FILL_AREA ( #168 ) ;
#195 = FILL_AREA_STYLE_COLOUR ( '', #143 ) ;
#196 = ORIENTED_EDGE ( 'NONE', *, *, #48, .F. ) ;
#197 = FACE_OUTER_BOUND ( 'NONE', #160, .T. ) ;
#198 = SURFACE_STYLE_USAGE ( .BOTH. , #87 ) ;
#199 = CARTESIAN_POINT ( 'NONE',  ( 0.0000000000000000000, -4.216400000000008100, -0.8432800000000536500 ) ) ;
#200 = EDGE_LOOP ( 'NONE', ( #123, #6 ) ) ;
#201 = DIRECTION ( 'NONE',  ( 8.659560562354874900E-017, -0.7071067811865428000, -0.7071067811865522400 ) ) ;
#202 = STYLED_ITEM ( 'NONE', ( #59 ), #214 ) ;
#203 = ADVANCED_FACE ( 'NONE', ( #106 ), #20, .T. ) ;
#204 = APPLICATION_PROTOCOL_DEFINITION ( 'draft international standard', 'automotive_design', 1998, #56 ) ;
#205 = ADVANCED_FACE ( 'NONE', ( #187 ), #27, .T. ) ;
#206 = EDGE_LOOP ( 'NONE', ( #196, #172, #117, #63 ) ) ;
#207 = VERTEX_POINT ( 'NONE', #184 ) ;
#208 = CIRCLE ( 'NONE', #85, 4.216400000000008100 ) ;
#209 = PRODUCT_DEFINITION_CONTEXT ( 'detailed design', #56, 'design' ) ;
#210 = MECHANICAL_DESIGN_GEOMETRIC_PRESENTATION_REPRESENTATION (  '', ( #202 ), #111 ) ;
#211 = EDGE_LOOP ( 'NONE', ( #132, #14, #90 ) ) ;
#212 = AXIS2_PLACEMENT_3D ( 'NONE', #166, #102, #124 ) ;
#213 = CARTESIAN_POINT ( 'NONE',  ( 0.0000000000000000000, 1.300189929215176000E-017, -120.6499999999999900 ) ) ;
#214 = MANIFOLD_SOLID_BREP ( '¸ðµû±â1', #72 ) ;
ENDSEC;
END-ISO-10303-21;
