ISO-10303-21;
HEADER;
FILE_DESCRIPTION (( 'STEP AP214' ),
    '1' );
FILE_NAME ('03-0275.STEP',
    '2020-07-23T06:12:25',
    ( '' ),
    ( '' ),
    'SwSTEP 2.0',
    'SolidWorks 2014',
    '' );
FILE_SCHEMA (( 'AUTOMOTIVE_DESIGN' ));
ENDSEC;

DATA;
#1 = AXIS2_PLACEMENT_3D ( 'NONE', #165, #178, #90 ) ;
#2 = EDGE_LOOP ( 'NONE', ( #147, #53, #157, #188 ) ) ;
#3 = CLOSED_SHELL ( 'NONE', ( #78, #183, #185, #148, #94, #171, #129 ) ) ;
#4 = PRESENTATION_STYLE_ASSIGNMENT (( #163 ) ) ;
#5 = AXIS2_PLACEMENT_3D ( 'NONE', #190, #113, #25 ) ;
#6 = DIRECTION ( 'NONE',  ( 0.0000000000000000000, 0.7071067811865432400, -0.7071067811865517900 ) ) ;
#7 = PRODUCT_DEFINITION_SHAPE ( 'NONE', 'NONE',  #192 ) ;
#8 =( GEOMETRIC_REPRESENTATION_CONTEXT ( 3 ) GLOBAL_UNCERTAINTY_ASSIGNED_CONTEXT ( ( #151 ) ) GLOBAL_UNIT_ASSIGNED_CONTEXT ( ( #45, #179, #117 ) ) REPRESENTATION_CONTEXT ( 'NONE', 'WORKASPACE' ) );
#9 = CONICAL_SURFACE ( 'NONE', #48, 3.444239999999987300, 0.7853981633974422800 ) ;
#10 = CARTESIAN_POINT ( 'NONE',  ( 5.272471864369109800E-016, 4.305300000000008800, -0.8610600000000313600 ) ) ;
#11 = ORIENTED_EDGE ( 'NONE', *, *, #98, .T. ) ;
#12 = FACE_OUTER_BOUND ( 'NONE', #186, .T. ) ;
#13 =( NAMED_UNIT ( * ) SI_UNIT ( $, .STERADIAN. ) SOLID_ANGLE_UNIT ( ) );
#14 = FACE_OUTER_BOUND ( 'NONE', #196, .T. ) ;
#15 =( GEOMETRIC_REPRESENTATION_CONTEXT ( 3 ) GLOBAL_UNCERTAINTY_ASSIGNED_CONTEXT ( ( #93 ) ) GLOBAL_UNIT_ASSIGNED_CONTEXT ( ( #59, #74, #50 ) ) REPRESENTATION_CONTEXT ( 'NONE', 'WORKASPACE' ) );
#16 = CARTESIAN_POINT ( 'NONE',  ( 0.0000000000000000000, 0.0000000000000000000, 0.0000000000000000000 ) ) ;
#17 = CARTESIAN_POINT ( 'NONE',  ( 0.0000000000000000000, 3.444239999999987300, 2.636259878959641800E-016 ) ) ;
#18 = DIRECTION ( 'NONE',  ( -0.0000000000000000000, -1.854053925099191200E-021, 1.000000000000000000 ) ) ;
#19 = FACE_OUTER_BOUND ( 'NONE', #2, .T. ) ;
#20 = CARTESIAN_POINT ( 'NONE',  ( 0.0000000000000000000, -4.305300000000015900, -120.6499999999999900 ) ) ;
#21 = ORIENTED_EDGE ( 'NONE', *, *, #168, .T. ) ;
#22 = ORIENTED_EDGE ( 'NONE', *, *, #98, .F. ) ;
#23 = LINE ( 'NONE', #41, #36 ) ;
#24 = FACE_OUTER_BOUND ( 'NONE', #212, .T. ) ;
#25 = DIRECTION ( 'NONE',  ( 0.0000000000000000000, -1.000000000000000000, 0.0000000000000000000 ) ) ;
#26 = DIRECTION ( 'NONE',  ( -0.0000000000000000000, -1.854053925099191200E-021, 1.000000000000000000 ) ) ;
#27 = CIRCLE ( 'NONE', #203, 4.305300000000015000 ) ;
#28 = DIRECTION ( 'NONE',  ( -0.0000000000000000000, -1.854053925099191200E-021, 1.000000000000000000 ) ) ;
#29 = VECTOR ( 'NONE', #156, 1000.000000000000000 ) ;
#30 = CARTESIAN_POINT ( 'NONE',  ( 0.0000000000000000000, 4.305300000000000800, 2.636275843476369300E-016 ) ) ;
#31 = SURFACE_STYLE_FILL_AREA ( #195 ) ;
#32 = MANIFOLD_SOLID_BREP ( '¸ðµû±â1', #3 ) ;
#33 = FACE_OUTER_BOUND ( 'NONE', #116, .T. ) ;
#34 = LINE ( 'NONE', #142, #67 ) ;
#35 = COLOUR_RGB ( '',0.7921568627450980000, 0.8196078431372548800, 0.9333333333333333500 ) ;
#36 = VECTOR ( 'NONE', #133, 1000.000000000000000 ) ;
#37 = AXIS2_PLACEMENT_3D ( 'NONE', #161, #132, #209 ) ;
#38 = ADVANCED_BREP_SHAPE_REPRESENTATION ( '03-0275', ( #32, #79 ), #8 ) ;
#39 = ORIENTED_EDGE ( 'NONE', *, *, #136, .F. ) ;
#40 = EDGE_CURVE ( 'NONE', #92, #66, #158, .T. ) ;
#41 = CARTESIAN_POINT ( 'NONE',  ( 4.217977491495264300E-016, -3.444239999999987300, 2.636132162825822400E-016 ) ) ;
#42 = DIRECTION ( 'NONE',  ( 0.0000000000000000000, -1.000000000000000000, 0.0000000000000000000 ) ) ;
#43 =( NAMED_UNIT ( * ) PLANE_ANGLE_UNIT ( ) SI_UNIT ( $, .RADIAN. ) );
#44 = APPLICATION_CONTEXT ( 'automotive_design' ) ;
#45 =( LENGTH_UNIT ( ) NAMED_UNIT ( * ) SI_UNIT ( .MILLI., .METRE. ) );
#46 = CARTESIAN_POINT ( 'NONE',  ( 0.0000000000000000000, -4.887649579867039000E-037, 2.636196020892732100E-016 ) ) ;
#47 = CARTESIAN_POINT ( 'NONE',  ( 0.0000000000000000000, -4.887649579867039000E-037, 2.636196020892732100E-016 ) ) ;
#48 = AXIS2_PLACEMENT_3D ( 'NONE', #46, #88, #210 ) ;
#49 = ORIENTED_EDGE ( 'NONE', *, *, #85, .T. ) ;
#50 =( NAMED_UNIT ( * ) SI_UNIT ( $, .STERADIAN. ) SOLID_ANGLE_UNIT ( ) );
#51 = PRODUCT ( '03-0275', '03-0275', '', ( #144 ) ) ;
#52 = AXIS2_PLACEMENT_3D ( 'NONE', #139, #167, #177 ) ;
#53 = ORIENTED_EDGE ( 'NONE', *, *, #168, .F. ) ;
#54 = EDGE_CURVE ( 'NONE', #128, #92, #206, .T. ) ;
#55 = DIRECTION ( 'NONE',  ( 0.0000000000000000000, 1.854053925099191200E-021, -1.000000000000000000 ) ) ;
#56 = CARTESIAN_POINT ( 'NONE',  ( 0.0000000000000000000, -4.305300000000008800, -7.982258363729563700E-021 ) ) ;
#57 = ORIENTED_EDGE ( 'NONE', *, *, #114, .T. ) ;
#58 = ORIENTED_EDGE ( 'NONE', *, *, #187, .T. ) ;
#59 =( LENGTH_UNIT ( ) NAMED_UNIT ( * ) SI_UNIT ( .MILLI., .METRE. ) );
#60 = DIRECTION ( 'NONE',  ( -0.0000000000000000000, -1.854053925099191200E-021, 1.000000000000000000 ) ) ;
#61 = PRESENTATION_LAYER_ASSIGNMENT (  '', '', ( #126 ) ) ;
#62 = DIRECTION ( 'NONE',  ( 0.0000000000000000000, -1.000000000000000000, 0.0000000000000000000 ) ) ;
#63 = ORIENTED_EDGE ( 'NONE', *, *, #100, .T. ) ;
#64 = COLOUR_RGB ( '',0.7921568627450980000, 0.8196078431372548800, 0.9333333333333333500 ) ;
#65 = EDGE_CURVE ( 'NONE', #121, #138, #27, .T. ) ;
#66 = VERTEX_POINT ( 'NONE', #97 ) ;
#67 = VECTOR ( 'NONE', #120, 1000.000000000000100 ) ;
#68 = VECTOR ( 'NONE', #6, 1000.000000000000000 ) ;
#69 = AXIS2_PLACEMENT_3D ( 'NONE', #119, #60, #166 ) ;
#70 = CARTESIAN_POINT ( 'NONE',  ( 0.0000000000000000000, 2.236916060632174200E-019, -120.6499999999999900 ) ) ;
#71 = ORIENTED_EDGE ( 'NONE', *, *, #95, .T. ) ;
#72 = MECHANICAL_DESIGN_GEOMETRIC_PRESENTATION_REPRESENTATION (  '', ( #126 ), #149 ) ;
#73 = FILL_AREA_STYLE_COLOUR ( '', #64 ) ;
#74 =( NAMED_UNIT ( * ) PLANE_ANGLE_UNIT ( ) SI_UNIT ( $, .RADIAN. ) );
#75 = DIRECTION ( 'NONE',  ( -0.0000000000000000000, -1.854053925099191200E-021, 1.000000000000000000 ) ) ;
#76 = CARTESIAN_POINT ( 'NONE',  ( 0.0000000000000000000, 2.236916060632174200E-019, -120.6499999999999900 ) ) ;
#77 = ORIENTED_EDGE ( 'NONE', *, *, #54, .F. ) ;
#78 = ADVANCED_FACE ( 'NONE', ( #150 ), #91, .T. ) ;
#79 = AXIS2_PLACEMENT_3D ( 'NONE', #16, #204, #143 ) ;
#80 = VERTEX_POINT ( 'NONE', #112 ) ;
#81 = PRESENTATION_LAYER_ASSIGNMENT (  '', '', ( #173 ) ) ;
#82 = FACE_OUTER_BOUND ( 'NONE', #169, .T. ) ;
#83 = CARTESIAN_POINT ( 'NONE',  ( 5.272471864369109800E-016, 4.305300000000008800, 7.982258363729563700E-021 ) ) ;
#84 = EDGE_LOOP ( 'NONE', ( #214, #96, #99, #77 ) ) ;
#85 = EDGE_CURVE ( 'NONE', #138, #66, #184, .T. ) ;
#86 = CIRCLE ( 'NONE', #130, 4.305300000000008800 ) ;
#87 = SURFACE_SIDE_STYLE ('',( #31 ) ) ;
#88 = DIRECTION ( 'NONE',  ( 0.0000000000000000000, 1.854053925099191200E-021, -1.000000000000000000 ) ) ;
#89 = PRESENTATION_STYLE_ASSIGNMENT (( #208 ) ) ;
#90 = DIRECTION ( 'NONE',  ( 0.0000000000000000000, 1.000000000000000000, 1.854053925096121000E-021 ) ) ;
#91 = CONICAL_SURFACE ( 'NONE', #140, 3.444239999999987300, 0.7853981633974422800 ) ;
#92 = VERTEX_POINT ( 'NONE', #10 ) ;
#93 = UNCERTAINTY_MEASURE_WITH_UNIT (LENGTH_MEASURE( 1.000000000000000100E-005 ), #59, 'distance_accuracy_value', 'NONE');
#94 = ADVANCED_FACE ( 'NONE', ( #12 ), #170, .T. ) ;
#95 = EDGE_CURVE ( 'NONE', #199, #138, #182, .T. ) ;
#96 = ORIENTED_EDGE ( 'NONE', *, *, #108, .T. ) ;
#97 = CARTESIAN_POINT ( 'NONE',  ( 0.0000000000000000000, -4.305300000000008800, -0.8610600000000313600 ) ) ;
#98 = EDGE_CURVE ( 'NONE', #121, #92, #164, .T. ) ;
#99 = ORIENTED_EDGE ( 'NONE', *, *, #40, .F. ) ;
#100 = EDGE_CURVE ( 'NONE', #66, #92, #86, .T. ) ;
#101 = PLANE ( 'NONE',  #146 ) ;
#102 = CIRCLE ( 'NONE', #1, 3.444239999999987300 ) ;
#103 = CARTESIAN_POINT ( 'NONE',  ( 0.0000000000000000000, 1.596451672745967700E-021, -0.8610600000000313600 ) ) ;
#104 = DIRECTION ( 'NONE',  ( 0.0000000000000000000, 1.854053925099191200E-021, -1.000000000000000000 ) ) ;
#105 = APPLICATION_CONTEXT ( 'automotive_design' ) ;
#106 = CIRCLE ( 'NONE', #160, 4.305300000000015000 ) ;
#107 = APPLICATION_PROTOCOL_DEFINITION ( 'draft international standard', 'automotive_design', 1998, #105 ) ;
#108 = EDGE_CURVE ( 'NONE', #80, #66, #23, .T. ) ;
#109 = ORIENTED_EDGE ( 'NONE', *, *, #40, .T. ) ;
#110 = ORIENTED_EDGE ( 'NONE', *, *, #65, .F. ) ;
#111 = PRODUCT_DEFINITION_FORMATION_WITH_SPECIFIED_SOURCE ( 'ANY', '', #51, .NOT_KNOWN. ) ;
#112 = CARTESIAN_POINT ( 'NONE',  ( 4.745224677932187300E-016, -3.444239999999987300, 2.636132162825822400E-016 ) ) ;
#113 = DIRECTION ( 'NONE',  ( -0.0000000000000000000, -1.854053925099191200E-021, 1.000000000000000000 ) ) ;
#114 = EDGE_CURVE ( 'NONE', #80, #128, #102, .T. ) ;
#115 = FILL_AREA_STYLE_COLOUR ( '', #35 ) ;
#116 = EDGE_LOOP ( 'NONE', ( #58, #11, #109, #176 ) ) ;
#117 =( NAMED_UNIT ( * ) SI_UNIT ( $, .STERADIAN. ) SOLID_ANGLE_UNIT ( ) );
#118 = VECTOR ( 'NONE', #155, 1000.000000000000100 ) ;
#119 = CARTESIAN_POINT ( 'NONE',  ( 0.0000000000000000000, 0.0000000000000000000, 0.0000000000000000000 ) ) ;
#120 = DIRECTION ( 'NONE',  ( 1.131426112287698500E-016, 0.9238795325112853000, 0.3826834323650930600 ) ) ;
#121 = VERTEX_POINT ( 'NONE', #180 ) ;
#122 = DIRECTION ( 'NONE',  ( 0.0000000000000000000, 1.854053925099191200E-021, -1.000000000000000000 ) ) ;
#123 = ORIENTED_EDGE ( 'NONE', *, *, #187, .F. ) ;
#124 = CIRCLE ( 'NONE', #127, 3.444239999999987300 ) ;
#125 = PRODUCT_DEFINITION_CONTEXT ( 'detailed design', #105, 'design' ) ;
#126 = STYLED_ITEM ( 'NONE', ( #89 ), #32 ) ;
#127 = AXIS2_PLACEMENT_3D ( 'NONE', #47, #198, #213 ) ;
#128 = VERTEX_POINT ( 'NONE', #17 ) ;
#129 = ADVANCED_FACE ( 'NONE', ( #19 ), #9, .T. ) ;
#130 = AXIS2_PLACEMENT_3D ( 'NONE', #103, #104, #200 ) ;
#131 = VECTOR ( 'NONE', #28, 1000.000000000000000 ) ;
#132 = DIRECTION ( 'NONE',  ( 0.0000000000000000000, 1.854053925099191200E-021, -1.000000000000000000 ) ) ;
#133 = DIRECTION ( 'NONE',  ( 8.659560562354881100E-017, -0.7071067811865432400, -0.7071067811865517900 ) ) ;
#134 = ORIENTED_EDGE ( 'NONE', *, *, #95, .F. ) ;
#135 = DIRECTION ( 'NONE',  ( 0.0000000000000000000, 1.000000000000000000, 1.854053925096121000E-021 ) ) ;
#136 = EDGE_CURVE ( 'NONE', #199, #121, #34, .T. ) ;
#137 = DIRECTION ( 'NONE',  ( 0.0000000000000000000, -1.000000000000000000, 0.0000000000000000000 ) ) ;
#138 = VERTEX_POINT ( 'NONE', #20 ) ;
#139 = CARTESIAN_POINT ( 'NONE',  ( 0.0000000000000000000, 0.0000000000000000000, 0.0000000000000000000 ) ) ;
#140 = AXIS2_PLACEMENT_3D ( 'NONE', #175, #55, #135 ) ;
#141 = DIRECTION ( 'NONE',  ( 0.0000000000000000000, 1.000000000000000000, 1.854053925099191200E-021 ) ) ;
#142 = CARTESIAN_POINT ( 'NONE',  ( 0.0000000000000000000, 2.269979657358402900E-019, -122.4333136500849000 ) ) ;
#143 = DIRECTION ( 'NONE',  ( 1.000000000000000000, 0.0000000000000000000, 0.0000000000000000000 ) ) ;
#144 = PRODUCT_CONTEXT ( 'NONE', #44, 'mechanical' ) ;
#145 = CYLINDRICAL_SURFACE ( 'NONE', #52, 4.305300000000008800 ) ;
#146 = AXIS2_PLACEMENT_3D ( 'NONE', #30, #122, #141 ) ;
#147 = ORIENTED_EDGE ( 'NONE', *, *, #108, .F. ) ;
#148 = ADVANCED_FACE ( 'NONE', ( #24 ), #101, .F. ) ;
#149 =( GEOMETRIC_REPRESENTATION_CONTEXT ( 3 ) GLOBAL_UNCERTAINTY_ASSIGNED_CONTEXT ( ( #197 ) ) GLOBAL_UNIT_ASSIGNED_CONTEXT ( ( #193, #43, #13 ) ) REPRESENTATION_CONTEXT ( 'NONE', 'WORKASPACE' ) );
#150 = FACE_OUTER_BOUND ( 'NONE', #84, .T. ) ;
#151 = UNCERTAINTY_MEASURE_WITH_UNIT (LENGTH_MEASURE( 1.000000000000000100E-005 ), #45, 'distance_accuracy_value', 'NONE');
#152 = AXIS2_PLACEMENT_3D ( 'NONE', #201, #75, #137 ) ;
#153 = CYLINDRICAL_SURFACE ( 'NONE', #69, 4.305300000000008800 ) ;
#154 = PRODUCT_RELATED_PRODUCT_CATEGORY ( 'part', '', ( #51 ) ) ;
#155 = DIRECTION ( 'NONE',  ( 0.0000000000000000000, -0.9238795325112853000, 0.3826834323650930600 ) ) ;
#156 = DIRECTION ( 'NONE',  ( -0.0000000000000000000, -1.854053925099191200E-021, 1.000000000000000000 ) ) ;
#157 = ORIENTED_EDGE ( 'NONE', *, *, #54, .T. ) ;
#158 = CIRCLE ( 'NONE', #37, 4.305300000000008800 ) ;
#159 = CARTESIAN_POINT ( 'NONE',  ( 0.0000000000000000000, 3.444239999999987300, 2.636259878959641800E-016 ) ) ;
#160 = AXIS2_PLACEMENT_3D ( 'NONE', #76, #18, #62 ) ;
#161 = CARTESIAN_POINT ( 'NONE',  ( 0.0000000000000000000, 1.596451672745967700E-021, -0.8610600000000313600 ) ) ;
#162 = APPLICATION_PROTOCOL_DEFINITION ( 'draft international standard', 'automotive_design', 1998, #44 ) ;
#163 = SURFACE_STYLE_USAGE ( .BOTH. , #87 ) ;
#164 = LINE ( 'NONE', #83, #29 ) ;
#165 = CARTESIAN_POINT ( 'NONE',  ( 0.0000000000000000000, -4.887649579867039000E-037, 2.636196020892732100E-016 ) ) ;
#166 = DIRECTION ( 'NONE',  ( 0.0000000000000000000, -1.000000000000000000, -1.854053925099191200E-021 ) ) ;
#167 = DIRECTION ( 'NONE',  ( -0.0000000000000000000, -1.854053925099191200E-021, 1.000000000000000000 ) ) ;
#168 = EDGE_CURVE ( 'NONE', #128, #80, #124, .T. ) ;
#169 = EDGE_LOOP ( 'NONE', ( #134, #202, #123 ) ) ;
#170 = CONICAL_SURFACE ( 'NONE', #5, 2414.213562373070500, 1.178097245096168900 ) ;
#171 = ADVANCED_FACE ( 'NONE', ( #14 ), #145, .T. ) ;
#172 = ORIENTED_EDGE ( 'NONE', *, *, #65, .T. ) ;
#173 = STYLED_ITEM ( 'NONE', ( #4 ), #38 ) ;
#174 = FILL_AREA_STYLE ('',( #115 ) ) ;
#175 = CARTESIAN_POINT ( 'NONE',  ( 0.0000000000000000000, -4.887649579867039000E-037, 2.636196020892732100E-016 ) ) ;
#176 = ORIENTED_EDGE ( 'NONE', *, *, #85, .F. ) ;
#177 = DIRECTION ( 'NONE',  ( 0.0000000000000000000, -1.000000000000000000, -1.854053925099191200E-021 ) ) ;
#178 = DIRECTION ( 'NONE',  ( -0.0000000000000000000, -1.854053925099191200E-021, 1.000000000000000000 ) ) ;
#179 =( NAMED_UNIT ( * ) PLANE_ANGLE_UNIT ( ) SI_UNIT ( $, .RADIAN. ) );
#180 = CARTESIAN_POINT ( 'NONE',  ( 5.272471864369120600E-016, 4.305300000000015900, -120.6499999999999900 ) ) ;
#181 = MECHANICAL_DESIGN_GEOMETRIC_PRESENTATION_REPRESENTATION (  '', ( #173 ), #15 ) ;
#182 = LINE ( 'NONE', #189, #118 ) ;
#183 = ADVANCED_FACE ( 'NONE', ( #33 ), #153, .T. ) ;
#184 = LINE ( 'NONE', #56, #131 ) ;
#185 = ADVANCED_FACE ( 'NONE', ( #82 ), #207, .T. ) ;
#186 = EDGE_LOOP ( 'NONE', ( #39, #71, #110 ) ) ;
#187 = EDGE_CURVE ( 'NONE', #138, #121, #106, .T. ) ;
#188 = ORIENTED_EDGE ( 'NONE', *, *, #100, .F. ) ;
#189 = CARTESIAN_POINT ( 'NONE',  ( 0.0000000000000000000, 2.269979657358402900E-019, -122.4333136500849000 ) ) ;
#190 = CARTESIAN_POINT ( 'NONE',  ( 0.0000000000000000000, -1.627055959363350900E-018, 877.5666863499151300 ) ) ;
#191 = SURFACE_SIDE_STYLE ('',( #205 ) ) ;
#192 = PRODUCT_DEFINITION ( 'UNKNOWN', '', #111, #125 ) ;
#193 =( LENGTH_UNIT ( ) NAMED_UNIT ( * ) SI_UNIT ( .MILLI., .METRE. ) );
#194 = SHAPE_DEFINITION_REPRESENTATION ( #7, #38 ) ;
#195 = FILL_AREA_STYLE ('',( #73 ) ) ;
#196 = EDGE_LOOP ( 'NONE', ( #22, #172, #49, #63 ) ) ;
#197 = UNCERTAINTY_MEASURE_WITH_UNIT (LENGTH_MEASURE( 1.000000000000000100E-005 ), #193, 'distance_accuracy_value', 'NONE');
#198 = DIRECTION ( 'NONE',  ( -0.0000000000000000000, -1.854053925099191200E-021, 1.000000000000000000 ) ) ;
#199 = VERTEX_POINT ( 'NONE', #211 ) ;
#200 = DIRECTION ( 'NONE',  ( 0.0000000000000000000, 1.000000000000000000, 0.0000000000000000000 ) ) ;
#201 = CARTESIAN_POINT ( 'NONE',  ( 0.0000000000000000000, -1.627055959363350900E-018, 877.5666863499151300 ) ) ;
#202 = ORIENTED_EDGE ( 'NONE', *, *, #136, .T. ) ;
#203 = AXIS2_PLACEMENT_3D ( 'NONE', #70, #26, #42 ) ;
#204 = DIRECTION ( 'NONE',  ( 0.0000000000000000000, 0.0000000000000000000, 1.000000000000000000 ) ) ;
#205 = SURFACE_STYLE_FILL_AREA ( #174 ) ;
#206 = LINE ( 'NONE', #159, #68 ) ;
#207 = CONICAL_SURFACE ( 'NONE', #152, 2414.213562373070500, 1.178097245096168900 ) ;
#208 = SURFACE_STYLE_USAGE ( .BOTH. , #191 ) ;
#209 = DIRECTION ( 'NONE',  ( 0.0000000000000000000, 1.000000000000000000, 0.0000000000000000000 ) ) ;
#210 = DIRECTION ( 'NONE',  ( 0.0000000000000000000, 1.000000000000000000, 1.854053925096121000E-021 ) ) ;
#211 = CARTESIAN_POINT ( 'NONE',  ( 0.0000000000000000000, 2.269979657358402900E-019, -122.4333136500849000 ) ) ;
#212 = EDGE_LOOP ( 'NONE', ( #21, #57 ) ) ;
#213 = DIRECTION ( 'NONE',  ( 0.0000000000000000000, 1.000000000000000000, 1.854053925096121000E-021 ) ) ;
#214 = ORIENTED_EDGE ( 'NONE', *, *, #114, .F. ) ;
ENDSEC;
END-ISO-10303-21;
