ISO-10303-21;
HEADER;
FILE_DESCRIPTION (( 'STEP AP214' ),
    '1' );
FILE_NAME ('03-0277.STEP',
    '2020-07-23T06:13:47',
    ( '' ),
    ( '' ),
    'SwSTEP 2.0',
    'SolidWorks 2014',
    '' );
FILE_SCHEMA (( 'AUTOMOTIVE_DESIGN' ));
ENDSEC;

DATA;
#1 = CARTESIAN_POINT ( 'NONE',  ( 0.0000000000000000000, 0.0000000000000000000, 0.0000000000000000000 ) ) ;
#2 = CIRCLE ( 'NONE', #137, 4.546600000000008600 ) ;
#3 = DIRECTION ( 'NONE',  ( 0.0000000000000000000, -1.046030612855012600E-019, -1.000000000000000000 ) ) ;
#4 = EDGE_CURVE ( 'NONE', #165, #103, #111, .T. ) ;
#5 = CARTESIAN_POINT ( 'NONE',  ( 0.0000000000000000000, -1.314946917871299000E-017, -125.7082633826855300 ) ) ;
#6 = AXIS2_PLACEMENT_3D ( 'NONE', #1, #164, #42 ) ;
#7 = DIRECTION ( 'NONE',  ( 0.0000000000000000000, 1.000000000000000000, 0.0000000000000000000 ) ) ;
#8 = UNCERTAINTY_MEASURE_WITH_UNIT (LENGTH_MEASURE( 1.000000000000000100E-005 ), #106, 'distance_accuracy_value', 'NONE');
#9 = CARTESIAN_POINT ( 'NONE',  ( 0.0000000000000000000, 9.145359210678828200E-017, 874.2917366173144300 ) ) ;
#10 = AXIS2_PLACEMENT_3D ( 'NONE', #63, #47, #62 ) ;
#11 = FACE_OUTER_BOUND ( 'NONE', #57, .T. ) ;
#12 = PRODUCT_DEFINITION ( 'UNKNOWN', '', #81, #29 ) ;
#13 =( NAMED_UNIT ( * ) PLANE_ANGLE_UNIT ( ) SI_UNIT ( $, .RADIAN. ) );
#14 = AXIS2_PLACEMENT_3D ( 'NONE', #170, #168, #67 ) ;
#15 =( LENGTH_UNIT ( ) NAMED_UNIT ( * ) SI_UNIT ( .MILLI., .METRE. ) );
#16 = AXIS2_PLACEMENT_3D ( 'NONE', #135, #191, #119 ) ;
#17 = MANIFOLD_SOLID_BREP ( '¸ðµû±â1', #171 ) ;
#18 = ADVANCED_FACE ( 'NONE', ( #11 ), #121, .T. ) ;
#19 = FILL_AREA_STYLE ('',( #205 ) ) ;
#20 = SURFACE_SIDE_STYLE ('',( #43 ) ) ;
#21 = CARTESIAN_POINT ( 'NONE',  ( 4.454383309602692400E-016, -3.637280000000006700, 2.790172216121407000E-016 ) ) ;
#22 = SURFACE_STYLE_FILL_AREA ( #70 ) ;
#23 = DIRECTION ( 'NONE',  ( -0.0000000000000000000, 1.046030612855012700E-019, 1.000000000000000000 ) ) ;
#24 = ORIENTED_EDGE ( 'NONE', *, *, #109, .F. ) ;
#25 = DIRECTION ( 'NONE',  ( -0.0000000000000000000, 1.046030612855012700E-019, 1.000000000000000000 ) ) ;
#26 = VECTOR ( 'NONE', #183, 1000.000000000000000 ) ;
#27 = ORIENTED_EDGE ( 'NONE', *, *, #123, .F. ) ;
#28 = ORIENTED_EDGE ( 'NONE', *, *, #4, .F. ) ;
#29 = PRODUCT_DEFINITION_CONTEXT ( 'detailed design', #125, 'design' ) ;
#30 = CIRCLE ( 'NONE', #207, 4.546600000000008600 ) ;
#31 = ADVANCED_FACE ( 'NONE', ( #39 ), #96, .T. ) ;
#32 = FACE_OUTER_BOUND ( 'NONE', #210, .T. ) ;
#33 = ORIENTED_EDGE ( 'NONE', *, *, #166, .F. ) ;
#34 = AXIS2_PLACEMENT_3D ( 'NONE', #52, #88, #105 ) ;
#35 = CARTESIAN_POINT ( 'NONE',  ( 0.0000000000000000000, -9.511765568813269100E-020, -0.9093200000000064600 ) ) ;
#36 = DIRECTION ( 'NONE',  ( 0.0000000000000000000, -1.000000000000000000, 1.046030612855012500E-019 ) ) ;
#37 = DIRECTION ( 'NONE',  ( 1.131426112287698000E-016, 0.9238795325112848500, 0.3826834323650943300 ) ) ;
#38 = APPLICATION_PROTOCOL_DEFINITION ( 'draft international standard', 'automotive_design', 1998, #141 ) ;
#39 = FACE_OUTER_BOUND ( 'NONE', #64, .T. ) ;
#40 = DIRECTION ( 'NONE',  ( 0.0000000000000000000, 1.000000000000000000, -1.046030612855012700E-019 ) ) ;
#41 = VERTEX_POINT ( 'NONE', #117 ) ;
#42 = DIRECTION ( 'NONE',  ( 1.000000000000000000, 0.0000000000000000000, 0.0000000000000000000 ) ) ;
#43 = SURFACE_STYLE_FILL_AREA ( #19 ) ;
#44 = AXIS2_PLACEMENT_3D ( 'NONE', #9, #174, #100 ) ;
#45 = EDGE_CURVE ( 'NONE', #73, #134, #167, .T. ) ;
#46 =( NAMED_UNIT ( * ) PLANE_ANGLE_UNIT ( ) SI_UNIT ( $, .RADIAN. ) );
#47 = DIRECTION ( 'NONE',  ( 0.0000000000000000000, -1.046030612855012600E-019, -1.000000000000000000 ) ) ;
#48 = DIRECTION ( 'NONE',  ( -0.0000000000000000000, 1.046030612855012700E-019, 1.000000000000000000 ) ) ;
#49 = ORIENTED_EDGE ( 'NONE', *, *, #50, .F. ) ;
#50 = EDGE_CURVE ( 'NONE', #151, #41, #212, .T. ) ;
#51 = DIRECTION ( 'NONE',  ( -0.0000000000000000000, 1.046030612855012700E-019, 1.000000000000000000 ) ) ;
#52 = CARTESIAN_POINT ( 'NONE',  ( 0.0000000000000000000, 9.145359210678828200E-017, 874.2917366173144300 ) ) ;
#53 = DIRECTION ( 'NONE',  ( 0.0000000000000000000, -1.046030612855012600E-019, -1.000000000000000000 ) ) ;
#54 = CYLINDRICAL_SURFACE ( 'NONE', #80, 4.546600000000008600 ) ;
#55 = LINE ( 'NONE', #21, #132 ) ;
#56 = PLANE ( 'NONE',  #87 ) ;
#57 = EDGE_LOOP ( 'NONE', ( #124, #99, #199, #33 ) ) ;
#58 = AXIS2_PLACEMENT_3D ( 'NONE', #84, #25, #90 ) ;
#59 = ORIENTED_EDGE ( 'NONE', *, *, #123, .T. ) ;
#60 = ORIENTED_EDGE ( 'NONE', *, *, #166, .T. ) ;
#61 =( GEOMETRIC_REPRESENTATION_CONTEXT ( 3 ) GLOBAL_UNCERTAINTY_ASSIGNED_CONTEXT ( ( #8 ) ) GLOBAL_UNIT_ASSIGNED_CONTEXT ( ( #106, #176, #196 ) ) REPRESENTATION_CONTEXT ( 'NONE', 'WORKASPACE' ) );
#62 = DIRECTION ( 'NONE',  ( 0.0000000000000000000, 1.000000000000000000, -1.046030612855015500E-019 ) ) ;
#63 = CARTESIAN_POINT ( 'NONE',  ( 0.0000000000000000000, 2.914625714013592900E-035, 2.786367509893881800E-016 ) ) ;
#64 = EDGE_LOOP ( 'NONE', ( #147, #49, #60, #187 ) ) ;
#65 = EDGE_CURVE ( 'NONE', #79, #134, #2, .T. ) ;
#66 = CARTESIAN_POINT ( 'NONE',  ( 0.0000000000000000000, -1.314946917871299000E-017, -125.7082633826855300 ) ) ;
#67 = DIRECTION ( 'NONE',  ( 0.0000000000000000000, -1.000000000000000000, 0.0000000000000000000 ) ) ;
#68 = ORIENTED_EDGE ( 'NONE', *, *, #104, .T. ) ;
#69 = CARTESIAN_POINT ( 'NONE',  ( 0.0000000000000000000, -1.295247406367719400E-017, -123.8249999999999900 ) ) ;
#70 = FILL_AREA_STYLE ('',( #94 ) ) ;
#71 = PRODUCT_CONTEXT ( 'NONE', #141, 'mechanical' ) ;
#72 = FACE_OUTER_BOUND ( 'NONE', #131, .T. ) ;
#73 = VERTEX_POINT ( 'NONE', #206 ) ;
#74 = EDGE_CURVE ( 'NONE', #103, #79, #203, .T. ) ;
#75 = EDGE_LOOP ( 'NONE', ( #24, #122, #27 ) ) ;
#76 = ORIENTED_EDGE ( 'NONE', *, *, #74, .T. ) ;
#77 =( GEOMETRIC_REPRESENTATION_CONTEXT ( 3 ) GLOBAL_UNCERTAINTY_ASSIGNED_CONTEXT ( ( #197 ) ) GLOBAL_UNIT_ASSIGNED_CONTEXT ( ( #148, #46, #146 ) ) REPRESENTATION_CONTEXT ( 'NONE', 'WORKASPACE' ) );
#78 = PRODUCT ( '03-0277', '03-0277', '', ( #71 ) ) ;
#79 = VERTEX_POINT ( 'NONE', #154 ) ;
#80 = AXIS2_PLACEMENT_3D ( 'NONE', #85, #23, #36 ) ;
#81 = PRODUCT_DEFINITION_FORMATION_WITH_SPECIFIED_SOURCE ( 'ANY', '', #78, .NOT_KNOWN. ) ;
#82 = PRESENTATION_STYLE_ASSIGNMENT (( #129 ) ) ;
#83 = DIRECTION ( 'NONE',  ( 0.0000000000000000000, -0.9238795325112848500, 0.3826834323650943300 ) ) ;
#84 = CARTESIAN_POINT ( 'NONE',  ( 0.0000000000000000000, 2.914625714013592300E-035, 2.786367509893881800E-016 ) ) ;
#85 = CARTESIAN_POINT ( 'NONE',  ( 0.0000000000000000000, 0.0000000000000000000, 0.0000000000000000000 ) ) ;
#86 = ORIENTED_EDGE ( 'NONE', *, *, #65, .T. ) ;
#87 = AXIS2_PLACEMENT_3D ( 'NONE', #139, #120, #40 ) ;
#88 = DIRECTION ( 'NONE',  ( -0.0000000000000000000, 1.046030612855012700E-019, 1.000000000000000000 ) ) ;
#89 = SHAPE_DEFINITION_REPRESENTATION ( #110, #130 ) ;
#90 = DIRECTION ( 'NONE',  ( 0.0000000000000000000, 1.000000000000000000, -1.046030612855015500E-019 ) ) ;
#91 = ORIENTED_EDGE ( 'NONE', *, *, #145, .F. ) ;
#92 = PRODUCT_RELATED_PRODUCT_CATEGORY ( 'part', '', ( #78 ) ) ;
#93 = PRESENTATION_LAYER_ASSIGNMENT (  '', '', ( #190 ) ) ;
#94 = FILL_AREA_STYLE_COLOUR ( '', #181 ) ;
#95 = ADVANCED_FACE ( 'NONE', ( #32 ), #54, .T. ) ;
#96 = CONICAL_SURFACE ( 'NONE', #161, 3.637280000000006700, 0.7853981633974456100 ) ;
#97 = CONICAL_SURFACE ( 'NONE', #44, 2414.213562373061000, 1.178097245096167500 ) ;
#98 = CONICAL_SURFACE ( 'NONE', #34, 2414.213562373061000, 1.178097245096167500 ) ;
#99 = ORIENTED_EDGE ( 'NONE', *, *, #193, .T. ) ;
#100 = DIRECTION ( 'NONE',  ( 0.0000000000000000000, -1.000000000000000000, 0.0000000000000000000 ) ) ;
#101 = DIRECTION ( 'NONE',  ( 0.0000000000000000000, -1.000000000000000000, 1.046030612855012500E-019 ) ) ;
#102 = DIRECTION ( 'NONE',  ( 0.0000000000000000000, -1.000000000000000000, 0.0000000000000000000 ) ) ;
#103 = VERTEX_POINT ( 'NONE', #186 ) ;
#104 = EDGE_CURVE ( 'NONE', #134, #79, #30, .T. ) ;
#105 = DIRECTION ( 'NONE',  ( 0.0000000000000000000, -1.000000000000000000, 0.0000000000000000000 ) ) ;
#106 =( LENGTH_UNIT ( ) NAMED_UNIT ( * ) SI_UNIT ( .MILLI., .METRE. ) );
#107 = EDGE_LOOP ( 'NONE', ( #214, #142 ) ) ;
#108 = FACE_OUTER_BOUND ( 'NONE', #107, .T. ) ;
#109 = EDGE_CURVE ( 'NONE', #165, #73, #138, .T. ) ;
#110 = PRODUCT_DEFINITION_SHAPE ( 'NONE', 'NONE',  #12 ) ;
#111 = LINE ( 'NONE', #5, #159 ) ;
#112 = ORIENTED_EDGE ( 'NONE', *, *, #45, .T. ) ;
#113 = ADVANCED_FACE ( 'NONE', ( #72 ), #156, .T. ) ;
#114 = ADVANCED_FACE ( 'NONE', ( #143 ), #98, .T. ) ;
#115 = DIRECTION ( 'NONE',  ( 0.0000000000000000000, 1.000000000000000000, -1.046030612855015500E-019 ) ) ;
#116 = CARTESIAN_POINT ( 'NONE',  ( 0.0000000000000000000, 2.914625714013592900E-035, 2.786367509893881800E-016 ) ) ;
#117 = CARTESIAN_POINT ( 'NONE',  ( 5.011181223303029900E-016, -3.637280000000006700, 2.790172216121407000E-016 ) ) ;
#118 = ORIENTED_EDGE ( 'NONE', *, *, #74, .F. ) ;
#119 = DIRECTION ( 'NONE',  ( 0.0000000000000000000, 1.000000000000000000, -1.046030612855015500E-019 ) ) ;
#120 = DIRECTION ( 'NONE',  ( 0.0000000000000000000, -1.046030612855012700E-019, -1.000000000000000000 ) ) ;
#121 = CONICAL_SURFACE ( 'NONE', #10, 3.637280000000006700, 0.7853981633974456100 ) ;
#122 = ORIENTED_EDGE ( 'NONE', *, *, #4, .T. ) ;
#123 = EDGE_CURVE ( 'NONE', #73, #103, #204, .T. ) ;
#124 = ORIENTED_EDGE ( 'NONE', *, *, #178, .F. ) ;
#125 = APPLICATION_CONTEXT ( 'automotive_design' ) ;
#126 = COLOUR_RGB ( '',0.7921568627450980000, 0.8196078431372548800, 0.9333333333333333500 ) ;
#127 = AXIS2_PLACEMENT_3D ( 'NONE', #69, #48, #102 ) ;
#128 = PRESENTATION_STYLE_ASSIGNMENT (( #158 ) ) ;
#129 = SURFACE_STYLE_USAGE ( .BOTH. , #20 ) ;
#130 = ADVANCED_BREP_SHAPE_REPRESENTATION ( '03-0277', ( #17, #6 ), #169 ) ;
#131 = EDGE_LOOP ( 'NONE', ( #194, #112, #68, #118 ) ) ;
#132 = VECTOR ( 'NONE', #211, 1000.000000000000100 ) ;
#133 = DIRECTION ( 'NONE',  ( 0.0000000000000000000, -1.046030612855012600E-019, -1.000000000000000000 ) ) ;
#134 = VERTEX_POINT ( 'NONE', #172 ) ;
#135 = CARTESIAN_POINT ( 'NONE',  ( 0.0000000000000000000, 2.914625714013592300E-035, 2.786367509893881800E-016 ) ) ;
#136 = CARTESIAN_POINT ( 'NONE',  ( 0.0000000000000000000, 3.637280000000006700, 2.782562803666356700E-016 ) ) ;
#137 = AXIS2_PLACEMENT_3D ( 'NONE', #35, #53, #7 ) ;
#138 = LINE ( 'NONE', #209, #149 ) ;
#139 = CARTESIAN_POINT ( 'NONE',  ( 0.0000000000000000000, 4.546600000000000600, 2.781611627109475300E-016 ) ) ;
#140 =( NAMED_UNIT ( * ) SI_UNIT ( $, .STERADIAN. ) SOLID_ANGLE_UNIT ( ) );
#141 = APPLICATION_CONTEXT ( 'automotive_design' ) ;
#142 = ORIENTED_EDGE ( 'NONE', *, *, #178, .T. ) ;
#143 = FACE_OUTER_BOUND ( 'NONE', #192, .T. ) ;
#144 = SURFACE_SIDE_STYLE ('',( #22 ) ) ;
#145 = EDGE_CURVE ( 'NONE', #103, #73, #150, .T. ) ;
#146 =( NAMED_UNIT ( * ) SI_UNIT ( $, .STERADIAN. ) SOLID_ANGLE_UNIT ( ) );
#147 = ORIENTED_EDGE ( 'NONE', *, *, #193, .F. ) ;
#148 =( LENGTH_UNIT ( ) NAMED_UNIT ( * ) SI_UNIT ( .MILLI., .METRE. ) );
#149 = VECTOR ( 'NONE', #37, 1000.000000000000000 ) ;
#150 = CIRCLE ( 'NONE', #14, 4.546600000000014900 ) ;
#151 = VERTEX_POINT ( 'NONE', #208 ) ;
#152 = UNCERTAINTY_MEASURE_WITH_UNIT (LENGTH_MEASURE( 1.000000000000000100E-005 ), #15, 'distance_accuracy_value', 'NONE');
#153 = DIRECTION ( 'NONE',  ( 0.0000000000000000000, 1.000000000000000000, 0.0000000000000000000 ) ) ;
#154 = CARTESIAN_POINT ( 'NONE',  ( 0.0000000000000000000, -4.546600000000008600, -0.9093200000000064600 ) ) ;
#155 = CARTESIAN_POINT ( 'NONE',  ( 0.0000000000000000000, 0.0000000000000000000, 0.0000000000000000000 ) ) ;
#156 = CYLINDRICAL_SURFACE ( 'NONE', #163, 4.546600000000008600 ) ;
#157 = CARTESIAN_POINT ( 'NONE',  ( 0.0000000000000000000, -4.546600000000008600, 4.755882784406609000E-019 ) ) ;
#158 = SURFACE_STYLE_USAGE ( .BOTH. , #144 ) ;
#159 = VECTOR ( 'NONE', #83, 1000.000000000000000 ) ;
#160 = VECTOR ( 'NONE', #188, 1000.000000000000100 ) ;
#161 = AXIS2_PLACEMENT_3D ( 'NONE', #116, #3, #115 ) ;
#162 = ORIENTED_EDGE ( 'NONE', *, *, #109, .T. ) ;
#163 = AXIS2_PLACEMENT_3D ( 'NONE', #155, #51, #101 ) ;
#164 = DIRECTION ( 'NONE',  ( 0.0000000000000000000, 0.0000000000000000000, 1.000000000000000000 ) ) ;
#165 = VERTEX_POINT ( 'NONE', #66 ) ;
#166 = EDGE_CURVE ( 'NONE', #151, #134, #213, .T. ) ;
#167 = LINE ( 'NONE', #184, #26 ) ;
#168 = DIRECTION ( 'NONE',  ( -0.0000000000000000000, 1.046030612855012700E-019, 1.000000000000000000 ) ) ;
#169 =( GEOMETRIC_REPRESENTATION_CONTEXT ( 3 ) GLOBAL_UNCERTAINTY_ASSIGNED_CONTEXT ( ( #152 ) ) GLOBAL_UNIT_ASSIGNED_CONTEXT ( ( #15, #13, #140 ) ) REPRESENTATION_CONTEXT ( 'NONE', 'WORKASPACE' ) );
#170 = CARTESIAN_POINT ( 'NONE',  ( 0.0000000000000000000, -1.295247406367719400E-017, -123.8249999999999900 ) ) ;
#171 = CLOSED_SHELL ( 'NONE', ( #18, #113, #114, #202, #180, #95, #31 ) ) ;
#172 = CARTESIAN_POINT ( 'NONE',  ( 5.567979137003366500E-016, 4.546600000000008600, -0.9093200000000064600 ) ) ;
#173 = DIRECTION ( 'NONE',  ( -0.0000000000000000000, 1.046030612855012700E-019, 1.000000000000000000 ) ) ;
#174 = DIRECTION ( 'NONE',  ( -0.0000000000000000000, 1.046030612855012700E-019, 1.000000000000000000 ) ) ;
#175 = STYLED_ITEM ( 'NONE', ( #128 ), #130 ) ;
#176 =( NAMED_UNIT ( * ) PLANE_ANGLE_UNIT ( ) SI_UNIT ( $, .RADIAN. ) );
#177 = APPLICATION_PROTOCOL_DEFINITION ( 'draft international standard', 'automotive_design', 1998, #125 ) ;
#178 = EDGE_CURVE ( 'NONE', #41, #151, #185, .T. ) ;
#179 = FACE_OUTER_BOUND ( 'NONE', #75, .T. ) ;
#180 = ADVANCED_FACE ( 'NONE', ( #179 ), #97, .T. ) ;
#181 = COLOUR_RGB ( '',0.7921568627450980000, 0.8196078431372548800, 0.9333333333333333500 ) ;
#182 = PRESENTATION_LAYER_ASSIGNMENT (  '', '', ( #175 ) ) ;
#183 = DIRECTION ( 'NONE',  ( -0.0000000000000000000, 1.046030612855012700E-019, 1.000000000000000000 ) ) ;
#184 = CARTESIAN_POINT ( 'NONE',  ( 5.567979137003366500E-016, 4.546600000000008600, -4.755882784406609000E-019 ) ) ;
#185 = CIRCLE ( 'NONE', #58, 3.637280000000006700 ) ;
#186 = CARTESIAN_POINT ( 'NONE',  ( 0.0000000000000000000, -4.546600000000014000, -123.8249999999999900 ) ) ;
#187 = ORIENTED_EDGE ( 'NONE', *, *, #65, .F. ) ;
#188 = DIRECTION ( 'NONE',  ( 0.0000000000000000000, 0.7071067811865455700, -0.7071067811865495700 ) ) ;
#189 = CARTESIAN_POINT ( 'NONE',  ( 0.0000000000000000000, -9.511765568813269100E-020, -0.9093200000000064600 ) ) ;
#190 = STYLED_ITEM ( 'NONE', ( #82 ), #17 ) ;
#191 = DIRECTION ( 'NONE',  ( -0.0000000000000000000, 1.046030612855012700E-019, 1.000000000000000000 ) ) ;
#192 = EDGE_LOOP ( 'NONE', ( #28, #162, #91 ) ) ;
#193 = EDGE_CURVE ( 'NONE', #41, #79, #55, .T. ) ;
#194 = ORIENTED_EDGE ( 'NONE', *, *, #145, .T. ) ;
#195 = MECHANICAL_DESIGN_GEOMETRIC_PRESENTATION_REPRESENTATION (  '', ( #175 ), #61 ) ;
#196 =( NAMED_UNIT ( * ) SI_UNIT ( $, .STERADIAN. ) SOLID_ANGLE_UNIT ( ) );
#197 = UNCERTAINTY_MEASURE_WITH_UNIT (LENGTH_MEASURE( 1.000000000000000100E-005 ), #148, 'distance_accuracy_value', 'NONE');
#198 = VECTOR ( 'NONE', #173, 1000.000000000000000 ) ;
#199 = ORIENTED_EDGE ( 'NONE', *, *, #104, .F. ) ;
#200 = MECHANICAL_DESIGN_GEOMETRIC_PRESENTATION_REPRESENTATION (  '', ( #190 ), #77 ) ;
#201 = ORIENTED_EDGE ( 'NONE', *, *, #45, .F. ) ;
#202 = ADVANCED_FACE ( 'NONE', ( #108 ), #56, .F. ) ;
#203 = LINE ( 'NONE', #157, #198 ) ;
#204 = CIRCLE ( 'NONE', #127, 4.546600000000014900 ) ;
#205 = FILL_AREA_STYLE_COLOUR ( '', #126 ) ;
#206 = CARTESIAN_POINT ( 'NONE',  ( 5.567979137003373400E-016, 4.546600000000014000, -123.8249999999999900 ) ) ;
#207 = AXIS2_PLACEMENT_3D ( 'NONE', #189, #133, #153 ) ;
#208 = CARTESIAN_POINT ( 'NONE',  ( 0.0000000000000000000, 3.637280000000006700, 2.782562803666356700E-016 ) ) ;
#209 = CARTESIAN_POINT ( 'NONE',  ( 0.0000000000000000000, -1.314946917871299000E-017, -125.7082633826855300 ) ) ;
#210 = EDGE_LOOP ( 'NONE', ( #201, #59, #76, #86 ) ) ;
#211 = DIRECTION ( 'NONE',  ( 8.659560562354909400E-017, -0.7071067811865455700, -0.7071067811865495700 ) ) ;
#212 = CIRCLE ( 'NONE', #16, 3.637280000000006700 ) ;
#213 = LINE ( 'NONE', #136, #160 ) ;
#214 = ORIENTED_EDGE ( 'NONE', *, *, #50, .T. ) ;
ENDSEC;
END-ISO-10303-21;
