ISO-10303-21;
HEADER;
FILE_DESCRIPTION (( 'STEP AP214' ),
    '1' );
FILE_NAME ('03-0278.STEP',
    '2020-07-23T06:14:28',
    ( '' ),
    ( '' ),
    'SwSTEP 2.0',
    'SolidWorks 2014',
    '' );
FILE_SCHEMA (( 'AUTOMOTIVE_DESIGN' ));
ENDSEC;

DATA;
#1 = ORIENTED_EDGE ( 'NONE', *, *, #195, .F. ) ;
#2 = PRESENTATION_LAYER_ASSIGNMENT (  '', '', ( #73 ) ) ;
#3 = CONICAL_SURFACE ( 'NONE', #164, 3.738880000000055500, 0.7853981633974380600 ) ;
#4 = CARTESIAN_POINT ( 'NONE',  ( 4.578807424396124200E-016, -3.738880000000055500, 2.865257962082676900E-016 ) ) ;
#5 = ORIENTED_EDGE ( 'NONE', *, *, #138, .F. ) ;
#6 = DIRECTION ( 'NONE',  ( 0.0000000000000000000, 1.000000000000000000, -5.766139485853838600E-020 ) ) ;
#7 = CARTESIAN_POINT ( 'NONE',  ( 0.0000000000000000000, -4.673600000000006600, -0.9347199999999701300 ) ) ;
#8 = CARTESIAN_POINT ( 'NONE',  ( 0.0000000000000000000, -4.673600000000006600, 2.694862950108716700E-019 ) ) ;
#9 = DIRECTION ( 'NONE',  ( -0.0000000000000000000, 5.766139485853972200E-020, 1.000000000000000000 ) ) ;
#10 = LINE ( 'NONE', #204, #34 ) ;
#11 =( GEOMETRIC_REPRESENTATION_CONTEXT ( 3 ) GLOBAL_UNCERTAINTY_ASSIGNED_CONTEXT ( ( #143 ) ) GLOBAL_UNIT_ASSIGNED_CONTEXT ( ( #142, #190, #96 ) ) REPRESENTATION_CONTEXT ( 'NONE', 'WORKASPACE' ) );
#12 = FACE_OUTER_BOUND ( 'NONE', #100, .T. ) ;
#13 = DIRECTION ( 'NONE',  ( 1.000000000000000000, 0.0000000000000000000, 0.0000000000000000000 ) ) ;
#14 =( LENGTH_UNIT ( ) NAMED_UNIT ( * ) SI_UNIT ( .MILLI., .METRE. ) );
#15 = DIRECTION ( 'NONE',  ( 0.0000000000000000000, 1.000000000000000000, 0.0000000000000000000 ) ) ;
#16 = AXIS2_PLACEMENT_3D ( 'NONE', #192, #24, #205 ) ;
#17 = VECTOR ( 'NONE', #153, 1000.000000000000100 ) ;
#18 = STYLED_ITEM ( 'NONE', ( #86 ), #120 ) ;
#19 = SHAPE_DEFINITION_REPRESENTATION ( #60, #88 ) ;
#20 = ADVANCED_FACE ( 'NONE', ( #104 ), #31, .T. ) ;
#21 = DIRECTION ( 'NONE',  ( -0.0000000000000000000, 5.766139485853972200E-020, 1.000000000000000000 ) ) ;
#22 = FACE_OUTER_BOUND ( 'NONE', #186, .T. ) ;
#23 = DIRECTION ( 'NONE',  ( -0.0000000000000000000, 5.766139485853972200E-020, 1.000000000000000000 ) ) ;
#24 = DIRECTION ( 'NONE',  ( 0.0000000000000000000, -5.766139485853972200E-020, -1.000000000000000000 ) ) ;
#25 = ORIENTED_EDGE ( 'NONE', *, *, #47, .F. ) ;
#26 = DIRECTION ( 'NONE',  ( 0.0000000000000000000, -5.766139485853972200E-020, -1.000000000000000000 ) ) ;
#27 = DIRECTION ( 'NONE',  ( -0.0000000000000000000, 5.766139485853972200E-020, 1.000000000000000000 ) ) ;
#28 = PRESENTATION_LAYER_ASSIGNMENT (  '', '', ( #18 ) ) ;
#29 = EDGE_CURVE ( 'NONE', #131, #127, #159, .T. ) ;
#30 = AXIS2_PLACEMENT_3D ( 'NONE', #78, #9, #154 ) ;
#31 = CONICAL_SURFACE ( 'NONE', #156, 2414.213562373055100, 1.178097245096166600 ) ;
#32 = FACE_OUTER_BOUND ( 'NONE', #53, .T. ) ;
#33 = ORIENTED_EDGE ( 'NONE', *, *, #58, .F. ) ;
#34 = VECTOR ( 'NONE', #188, 1000.000000000000000 ) ;
#35 = ORIENTED_EDGE ( 'NONE', *, *, #91, .F. ) ;
#36 = AXIS2_PLACEMENT_3D ( 'NONE', #203, #137, #74 ) ;
#37 = DIRECTION ( 'NONE',  ( 0.0000000000000000000, -1.000000000000000000, 0.0000000000000000000 ) ) ;
#38 = FACE_OUTER_BOUND ( 'NONE', #176, .T. ) ;
#39 = EDGE_LOOP ( 'NONE', ( #87, #130, #90, #135 ) ) ;
#40 = AXIS2_PLACEMENT_3D ( 'NONE', #155, #61, #95 ) ;
#41 = CARTESIAN_POINT ( 'NONE',  ( 5.151158352445600300E-016, -3.738880000000055500, 2.865257962082676900E-016 ) ) ;
#42 = PLANE ( 'NONE',  #40 ) ;
#43 = CARTESIAN_POINT ( 'NONE',  ( 0.0000000000000000000, -4.673600000000016400, -127.0000000000000000 ) ) ;
#44 = EDGE_CURVE ( 'NONE', #183, #127, #212, .T. ) ;
#45 = AXIS2_PLACEMENT_3D ( 'NONE', #59, #92, #171 ) ;
#46 = CIRCLE ( 'NONE', #45, 4.673600000000015500 ) ;
#47 = EDGE_CURVE ( 'NONE', #206, #134, #114, .T. ) ;
#48 = FACE_OUTER_BOUND ( 'NONE', #39, .T. ) ;
#49 = ORIENTED_EDGE ( 'NONE', *, *, #103, .F. ) ;
#50 =( NAMED_UNIT ( * ) SI_UNIT ( $, .STERADIAN. ) SOLID_ANGLE_UNIT ( ) );
#51 = DIRECTION ( 'NONE',  ( 0.0000000000000000000, -5.766139485853972200E-020, -1.000000000000000000 ) ) ;
#52 = ORIENTED_EDGE ( 'NONE', *, *, #91, .T. ) ;
#53 = EDGE_LOOP ( 'NONE', ( #97, #55 ) ) ;
#54 = ORIENTED_EDGE ( 'NONE', *, *, #200, .F. ) ;
#55 = ORIENTED_EDGE ( 'NONE', *, *, #200, .T. ) ;
#56 = EDGE_CURVE ( 'NONE', #134, #131, #148, .T. ) ;
#57 =( GEOMETRIC_REPRESENTATION_CONTEXT ( 3 ) GLOBAL_UNCERTAINTY_ASSIGNED_CONTEXT ( ( #185 ) ) GLOBAL_UNIT_ASSIGNED_CONTEXT ( ( #68, #207, #50 ) ) REPRESENTATION_CONTEXT ( 'NONE', 'WORKASPACE' ) );
#58 = EDGE_CURVE ( 'NONE', #127, #131, #191, .T. ) ;
#59 = CARTESIAN_POINT ( 'NONE',  ( 0.0000000000000000000, -7.322997147034544000E-018, -127.0000000000000000 ) ) ;
#60 = PRODUCT_DEFINITION_SHAPE ( 'NONE', 'NONE',  #187 ) ;
#61 = DIRECTION ( 'NONE',  ( 0.0000000000000000000, -5.766139485853972200E-020, -1.000000000000000000 ) ) ;
#62 = FILL_AREA_STYLE_COLOUR ( '', #99 ) ;
#63 =( GEOMETRIC_REPRESENTATION_CONTEXT ( 3 ) GLOBAL_UNCERTAINTY_ASSIGNED_CONTEXT ( ( #189 ) ) GLOBAL_UNIT_ASSIGNED_CONTEXT ( ( #14, #110, #194 ) ) REPRESENTATION_CONTEXT ( 'NONE', 'WORKASPACE' ) );
#64 = CARTESIAN_POINT ( 'NONE',  ( 0.0000000000000000000, 1.650904590778993700E-035, 2.863102071722589800E-016 ) ) ;
#65 = ORIENTED_EDGE ( 'NONE', *, *, #75, .T. ) ;
#66 = CARTESIAN_POINT ( 'NONE',  ( 5.723509280495089200E-016, 4.673600000000016400, -127.0000000000000000 ) ) ;
#67 = DIRECTION ( 'NONE',  ( 0.0000000000000000000, 1.000000000000000000, -5.766139485853838600E-020 ) ) ;
#68 =( LENGTH_UNIT ( ) NAMED_UNIT ( * ) SI_UNIT ( .MILLI., .METRE. ) );
#69 = DIRECTION ( 'NONE',  ( 0.0000000000000000000, -1.000000000000000000, 0.0000000000000000000 ) ) ;
#70 = AXIS2_PLACEMENT_3D ( 'NONE', #175, #193, #180 ) ;
#71 = PRODUCT_RELATED_PRODUCT_CATEGORY ( 'part', '', ( #94 ) ) ;
#72 = LINE ( 'NONE', #4, #17 ) ;
#73 = STYLED_ITEM ( 'NONE', ( #108 ), #88 ) ;
#74 = DIRECTION ( 'NONE',  ( 0.0000000000000000000, -1.000000000000000000, 5.766139485853973500E-020 ) ) ;
#75 = EDGE_CURVE ( 'NONE', #134, #183, #46, .T. ) ;
#76 = AXIS2_PLACEMENT_3D ( 'NONE', #109, #82, #67 ) ;
#77 = DIRECTION ( 'NONE',  ( -0.0000000000000000000, 5.766139485853972200E-020, 1.000000000000000000 ) ) ;
#78 = CARTESIAN_POINT ( 'NONE',  ( 0.0000000000000000000, 5.022677283323799500E-017, 871.0641314948929900 ) ) ;
#79 = CARTESIAN_POINT ( 'NONE',  ( 5.723509280495078400E-016, 4.673600000000006600, -0.9347199999999701300 ) ) ;
#80 = VECTOR ( 'NONE', #23, 1000.000000000000000 ) ;
#81 = EDGE_LOOP ( 'NONE', ( #25, #52, #85 ) ) ;
#82 = DIRECTION ( 'NONE',  ( -0.0000000000000000000, 5.766139485853972200E-020, 1.000000000000000000 ) ) ;
#83 = CARTESIAN_POINT ( 'NONE',  ( 0.0000000000000000000, -7.434622025301728000E-018, -128.9358685051069200 ) ) ;
#84 = DIRECTION ( 'NONE',  ( 0.0000000000000000000, -0.9238795325112845200, 0.3826834323650951700 ) ) ;
#85 = ORIENTED_EDGE ( 'NONE', *, *, #75, .F. ) ;
#86 = PRESENTATION_STYLE_ASSIGNMENT (( #174 ) ) ;
#87 = ORIENTED_EDGE ( 'NONE', *, *, #44, .F. ) ;
#88 = ADVANCED_BREP_SHAPE_REPRESENTATION ( '03-0278', ( #120, #116 ), #63 ) ;
#89 = EDGE_CURVE ( 'NONE', #118, #131, #72, .T. ) ;
#90 = ORIENTED_EDGE ( 'NONE', *, *, #56, .T. ) ;
#91 = EDGE_CURVE ( 'NONE', #206, #183, #10, .T. ) ;
#92 = DIRECTION ( 'NONE',  ( -0.0000000000000000000, 5.766139485853972200E-020, 1.000000000000000000 ) ) ;
#93 = ORIENTED_EDGE ( 'NONE', *, *, #195, .T. ) ;
#94 = PRODUCT ( '03-0278', '03-0278', '', ( #181 ) ) ;
#95 = DIRECTION ( 'NONE',  ( 0.0000000000000000000, 1.000000000000000000, -5.766139485853972200E-020 ) ) ;
#96 =( NAMED_UNIT ( * ) SI_UNIT ( $, .STERADIAN. ) SOLID_ANGLE_UNIT ( ) );
#97 = ORIENTED_EDGE ( 'NONE', *, *, #138, .T. ) ;
#98 = APPLICATION_CONTEXT ( 'automotive_design' ) ;
#99 = COLOUR_RGB ( '',0.7921568627450980000, 0.8196078431372548800, 0.9333333333333333500 ) ;
#100 = EDGE_LOOP ( 'NONE', ( #54, #122, #33, #1 ) ) ;
#101 = DIRECTION ( 'NONE',  ( 0.0000000000000000000, 0.0000000000000000000, 1.000000000000000000 ) ) ;
#102 = APPLICATION_CONTEXT ( 'automotive_design' ) ;
#103 = EDGE_CURVE ( 'NONE', #183, #134, #141, .T. ) ;
#104 = FACE_OUTER_BOUND ( 'NONE', #125, .T. ) ;
#105 = CYLINDRICAL_SURFACE ( 'NONE', #144, 4.673600000000006600 ) ;
#106 = VECTOR ( 'NONE', #84, 1000.000000000000000 ) ;
#107 = CARTESIAN_POINT ( 'NONE',  ( 0.0000000000000000000, 3.738880000000055500, 2.860946181362502800E-016 ) ) ;
#108 = PRESENTATION_STYLE_ASSIGNMENT (( #196 ) ) ;
#109 = CARTESIAN_POINT ( 'NONE',  ( 0.0000000000000000000, 1.650904590778993700E-035, 2.863102071722589800E-016 ) ) ;
#110 =( NAMED_UNIT ( * ) PLANE_ANGLE_UNIT ( ) SI_UNIT ( $, .RADIAN. ) );
#111 = FILL_AREA_STYLE_COLOUR ( '', #214 ) ;
#112 = LINE ( 'NONE', #124, #177 ) ;
#113 = CARTESIAN_POINT ( 'NONE',  ( 0.0000000000000000000, -5.389725900217253400E-020, -0.9347199999999701300 ) ) ;
#114 = LINE ( 'NONE', #83, #106 ) ;
#115 = ADVANCED_FACE ( 'NONE', ( #22 ), #126, .T. ) ;
#116 = AXIS2_PLACEMENT_3D ( 'NONE', #179, #101, #13 ) ;
#117 = ADVANCED_FACE ( 'NONE', ( #48 ), #105, .T. ) ;
#118 = VERTEX_POINT ( 'NONE', #41 ) ;
#119 = CARTESIAN_POINT ( 'NONE',  ( 0.0000000000000000000, -7.322997147034544000E-018, -127.0000000000000000 ) ) ;
#120 = MANIFOLD_SOLID_BREP ( '¸ðµû±â1', #202 ) ;
#121 = CIRCLE ( 'NONE', #76, 3.738880000000055500 ) ;
#122 = ORIENTED_EDGE ( 'NONE', *, *, #89, .T. ) ;
#123 = PRODUCT_DEFINITION_CONTEXT ( 'detailed design', #102, 'design' ) ;
#124 = CARTESIAN_POINT ( 'NONE',  ( 0.0000000000000000000, 3.738880000000055500, 2.860946181362502800E-016 ) ) ;
#125 = EDGE_LOOP ( 'NONE', ( #35, #149, #49 ) ) ;
#126 = CYLINDRICAL_SURFACE ( 'NONE', #36, 4.673600000000006600 ) ;
#127 = VERTEX_POINT ( 'NONE', #79 ) ;
#128 = CARTESIAN_POINT ( 'NONE',  ( 0.0000000000000000000, 5.022677283323799500E-017, 871.0641314948929900 ) ) ;
#129 = AXIS2_PLACEMENT_3D ( 'NONE', #113, #51, #15 ) ;
#130 = ORIENTED_EDGE ( 'NONE', *, *, #103, .T. ) ;
#131 = VERTEX_POINT ( 'NONE', #7 ) ;
#132 = CONICAL_SURFACE ( 'NONE', #16, 3.738880000000055500, 0.7853981633974380600 ) ;
#133 = ADVANCED_FACE ( 'NONE', ( #38 ), #132, .T. ) ;
#134 = VERTEX_POINT ( 'NONE', #43 ) ;
#135 = ORIENTED_EDGE ( 'NONE', *, *, #29, .T. ) ;
#136 = SURFACE_STYLE_FILL_AREA ( #173 ) ;
#137 = DIRECTION ( 'NONE',  ( -0.0000000000000000000, 5.766139485853972200E-020, 1.000000000000000000 ) ) ;
#138 = EDGE_CURVE ( 'NONE', #167, #118, #208, .T. ) ;
#139 = MECHANICAL_DESIGN_GEOMETRIC_PRESENTATION_REPRESENTATION (  '', ( #73 ), #57 ) ;
#140 = DIRECTION ( 'NONE',  ( 0.0000000000000000000, 0.7071067811865403600, -0.7071067811865547900 ) ) ;
#141 = CIRCLE ( 'NONE', #199, 4.673600000000015500 ) ;
#142 =( LENGTH_UNIT ( ) NAMED_UNIT ( * ) SI_UNIT ( .MILLI., .METRE. ) );
#143 = UNCERTAINTY_MEASURE_WITH_UNIT (LENGTH_MEASURE( 1.000000000000000100E-005 ), #142, 'distance_accuracy_value', 'NONE');
#144 = AXIS2_PLACEMENT_3D ( 'NONE', #210, #182, #170 ) ;
#145 = APPLICATION_PROTOCOL_DEFINITION ( 'draft international standard', 'automotive_design', 1998, #98 ) ;
#146 = FILL_AREA_STYLE ('',( #111 ) ) ;
#147 = SURFACE_SIDE_STYLE ('',( #151 ) ) ;
#148 = LINE ( 'NONE', #8, #80 ) ;
#149 = ORIENTED_EDGE ( 'NONE', *, *, #47, .T. ) ;
#150 = ADVANCED_FACE ( 'NONE', ( #184 ), #162, .T. ) ;
#151 = SURFACE_STYLE_FILL_AREA ( #146 ) ;
#152 = PRODUCT_DEFINITION_FORMATION_WITH_SPECIFIED_SOURCE ( 'ANY', '', #94, .NOT_KNOWN. ) ;
#153 = DIRECTION ( 'NONE',  ( 8.659560562354846600E-017, -0.7071067811865403600, -0.7071067811865547900 ) ) ;
#154 = DIRECTION ( 'NONE',  ( 0.0000000000000000000, -1.000000000000000000, 0.0000000000000000000 ) ) ;
#155 = CARTESIAN_POINT ( 'NONE',  ( 0.0000000000000000000, 4.673599999999999500, 2.860407208772481100E-016 ) ) ;
#156 = AXIS2_PLACEMENT_3D ( 'NONE', #128, #27, #69 ) ;
#157 = SURFACE_SIDE_STYLE ('',( #136 ) ) ;
#158 = APPLICATION_PROTOCOL_DEFINITION ( 'draft international standard', 'automotive_design', 1998, #102 ) ;
#159 = CIRCLE ( 'NONE', #129, 4.673600000000006600 ) ;
#160 = DIRECTION ( 'NONE',  ( 0.0000000000000000000, 1.000000000000000000, -5.766139485853838600E-020 ) ) ;
#161 = CARTESIAN_POINT ( 'NONE',  ( 0.0000000000000000000, 1.650904590778993700E-035, 2.863102071722589800E-016 ) ) ;
#162 = CONICAL_SURFACE ( 'NONE', #30, 2414.213562373055100, 1.178097245096166600 ) ;
#163 = CARTESIAN_POINT ( 'NONE',  ( 5.723509280495078400E-016, 4.673600000000006600, -2.694862950108716700E-019 ) ) ;
#164 = AXIS2_PLACEMENT_3D ( 'NONE', #161, #26, #160 ) ;
#165 = ADVANCED_FACE ( 'NONE', ( #32 ), #42, .F. ) ;
#166 = ORIENTED_EDGE ( 'NONE', *, *, #44, .T. ) ;
#167 = VERTEX_POINT ( 'NONE', #107 ) ;
#168 = AXIS2_PLACEMENT_3D ( 'NONE', #64, #77, #6 ) ;
#169 = VECTOR ( 'NONE', #198, 1000.000000000000000 ) ;
#170 = DIRECTION ( 'NONE',  ( 0.0000000000000000000, -1.000000000000000000, 5.766139485853973500E-020 ) ) ;
#171 = DIRECTION ( 'NONE',  ( 0.0000000000000000000, -1.000000000000000000, 0.0000000000000000000 ) ) ;
#172 = ORIENTED_EDGE ( 'NONE', *, *, #29, .F. ) ;
#173 = FILL_AREA_STYLE ('',( #62 ) ) ;
#174 = SURFACE_STYLE_USAGE ( .BOTH. , #157 ) ;
#175 = CARTESIAN_POINT ( 'NONE',  ( 0.0000000000000000000, -5.389725900217253400E-020, -0.9347199999999701300 ) ) ;
#176 = EDGE_LOOP ( 'NONE', ( #209, #5, #93, #172 ) ) ;
#177 = VECTOR ( 'NONE', #140, 1000.000000000000100 ) ;
#178 = ORIENTED_EDGE ( 'NONE', *, *, #56, .F. ) ;
#179 = CARTESIAN_POINT ( 'NONE',  ( 0.0000000000000000000, 0.0000000000000000000, 0.0000000000000000000 ) ) ;
#180 = DIRECTION ( 'NONE',  ( 0.0000000000000000000, 1.000000000000000000, 0.0000000000000000000 ) ) ;
#181 = PRODUCT_CONTEXT ( 'NONE', #98, 'mechanical' ) ;
#182 = DIRECTION ( 'NONE',  ( -0.0000000000000000000, 5.766139485853972200E-020, 1.000000000000000000 ) ) ;
#183 = VERTEX_POINT ( 'NONE', #66 ) ;
#184 = FACE_OUTER_BOUND ( 'NONE', #81, .T. ) ;
#185 = UNCERTAINTY_MEASURE_WITH_UNIT (LENGTH_MEASURE( 1.000000000000000100E-005 ), #68, 'distance_accuracy_value', 'NONE');
#186 = EDGE_LOOP ( 'NONE', ( #65, #166, #213, #178 ) ) ;
#187 = PRODUCT_DEFINITION ( 'UNKNOWN', '', #152, #123 ) ;
#188 = DIRECTION ( 'NONE',  ( 1.131426112287697500E-016, 0.9238795325112845200, 0.3826834323650951700 ) ) ;
#189 = UNCERTAINTY_MEASURE_WITH_UNIT (LENGTH_MEASURE( 1.000000000000000100E-005 ), #14, 'distance_accuracy_value', 'NONE');
#190 =( NAMED_UNIT ( * ) PLANE_ANGLE_UNIT ( ) SI_UNIT ( $, .RADIAN. ) );
#191 = CIRCLE ( 'NONE', #70, 4.673600000000006600 ) ;
#192 = CARTESIAN_POINT ( 'NONE',  ( 0.0000000000000000000, 1.650904590778993700E-035, 2.863102071722589800E-016 ) ) ;
#193 = DIRECTION ( 'NONE',  ( 0.0000000000000000000, -5.766139485853972200E-020, -1.000000000000000000 ) ) ;
#194 =( NAMED_UNIT ( * ) SI_UNIT ( $, .STERADIAN. ) SOLID_ANGLE_UNIT ( ) );
#195 = EDGE_CURVE ( 'NONE', #167, #127, #112, .T. ) ;
#196 = SURFACE_STYLE_USAGE ( .BOTH. , #147 ) ;
#197 = CARTESIAN_POINT ( 'NONE',  ( 0.0000000000000000000, -7.434622025301728000E-018, -128.9358685051069200 ) ) ;
#198 = DIRECTION ( 'NONE',  ( -0.0000000000000000000, 5.766139485853972200E-020, 1.000000000000000000 ) ) ;
#199 = AXIS2_PLACEMENT_3D ( 'NONE', #119, #21, #37 ) ;
#200 = EDGE_CURVE ( 'NONE', #118, #167, #121, .T. ) ;
#201 = MECHANICAL_DESIGN_GEOMETRIC_PRESENTATION_REPRESENTATION (  '', ( #18 ), #11 ) ;
#202 = CLOSED_SHELL ( 'NONE', ( #211, #115, #150, #165, #20, #117, #133 ) ) ;
#203 = CARTESIAN_POINT ( 'NONE',  ( 0.0000000000000000000, 0.0000000000000000000, 0.0000000000000000000 ) ) ;
#204 = CARTESIAN_POINT ( 'NONE',  ( 1.842643704512397200E-049, -7.434622025301724900E-018, -128.9358685051069200 ) ) ;
#205 = DIRECTION ( 'NONE',  ( 0.0000000000000000000, 1.000000000000000000, -5.766139485853838600E-020 ) ) ;
#206 = VERTEX_POINT ( 'NONE', #197 ) ;
#207 =( NAMED_UNIT ( * ) PLANE_ANGLE_UNIT ( ) SI_UNIT ( $, .RADIAN. ) );
#208 = CIRCLE ( 'NONE', #168, 3.738880000000055500 ) ;
#209 = ORIENTED_EDGE ( 'NONE', *, *, #89, .F. ) ;
#210 = CARTESIAN_POINT ( 'NONE',  ( 0.0000000000000000000, 0.0000000000000000000, 0.0000000000000000000 ) ) ;
#211 = ADVANCED_FACE ( 'NONE', ( #12 ), #3, .T. ) ;
#212 = LINE ( 'NONE', #163, #169 ) ;
#213 = ORIENTED_EDGE ( 'NONE', *, *, #58, .T. ) ;
#214 = COLOUR_RGB ( '',0.7921568627450980000, 0.8196078431372548800, 0.9333333333333333500 ) ;
ENDSEC;
END-ISO-10303-21;
