ISO-10303-21;
HEADER;
FILE_DESCRIPTION (( 'STEP AP214' ),
    '1' );
FILE_NAME ('03-0279.STEP',
    '2020-07-23T06:15:09',
    ( '' ),
    ( '' ),
    'SwSTEP 2.0',
    'SolidWorks 2014',
    '' );
FILE_SCHEMA (( 'AUTOMOTIVE_DESIGN' ));
ENDSEC;

DATA;
#1 = EDGE_CURVE ( 'NONE', #87, #106, #74, .T. ) ;
#2 = VECTOR ( 'NONE', #11, 1000.000000000000100 ) ;
#3 = VERTEX_POINT ( 'NONE', #174 ) ;
#4 = VERTEX_POINT ( 'NONE', #131 ) ;
#5 = EDGE_CURVE ( 'NONE', #18, #150, #110, .T. ) ;
#6 = EDGE_LOOP ( 'NONE', ( #211, #120, #123, #32 ) ) ;
#7 = STYLED_ITEM ( 'NONE', ( #99 ), #81 ) ;
#8 = CARTESIAN_POINT ( 'NONE',  ( 0.0000000000000000000, 0.0000000000000000000, 0.0000000000000000000 ) ) ;
#9 = COLOUR_RGB ( '',0.7921568627450980000, 0.8196078431372548800, 0.9333333333333333500 ) ;
#10 = DIRECTION ( 'NONE',  ( 0.0000000000000000000, 0.7071067811865460200, -0.7071067811865490200 ) ) ;
#11 = DIRECTION ( 'NONE',  ( 8.659560562354913100E-017, -0.7071067811865460200, -0.7071067811865490200 ) ) ;
#12 = CARTESIAN_POINT ( 'NONE',  ( 0.0000000000000000000, 4.109827029594851100E-017, 871.0167868847138400 ) ) ;
#13 = ORIENTED_EDGE ( 'NONE', *, *, #57, .T. ) ;
#14 = DIRECTION ( 'NONE',  ( -0.0000000000000000000, 4.718424594655739900E-020, 1.000000000000000000 ) ) ;
#15 = DIRECTION ( 'NONE',  ( -0.0000000000000000000, 4.718424594655739900E-020, 1.000000000000000000 ) ) ;
#16 = APPLICATION_CONTEXT ( 'automotive_design' ) ;
#17 = FILL_AREA_STYLE_COLOUR ( '', #9 ) ;
#18 = VERTEX_POINT ( 'NONE', #69 ) ;
#19 = AXIS2_PLACEMENT_3D ( 'NONE', #126, #206, #170 ) ;
#20 = ORIENTED_EDGE ( 'NONE', *, *, #171, .T. ) ;
#21 = ORIENTED_EDGE ( 'NONE', *, *, #5, .T. ) ;
#22 = CIRCLE ( 'NONE', #198, 3.830320000000011900 ) ;
#23 = CIRCLE ( 'NONE', #19, 4.787900000000014700 ) ;
#24 = CARTESIAN_POINT ( 'NONE',  ( 0.0000000000000000000, 3.830320000000011900, 2.931065464465304200E-016 ) ) ;
#25 = CARTESIAN_POINT ( 'NONE',  ( 4.690789127710103200E-016, -3.830320000000011900, 2.934680079683984700E-016 ) ) ;
#26 = EDGE_CURVE ( 'NONE', #3, #18, #184, .T. ) ;
#27 = CARTESIAN_POINT ( 'NONE',  ( 5.863486409637622200E-016, 4.787900000000008500, -0.9575800000000002100 ) ) ;
#28 = FACE_OUTER_BOUND ( 'NONE', #61, .T. ) ;
#29 = SURFACE_SIDE_STYLE ('',( #35 ) ) ;
#30 = MECHANICAL_DESIGN_GEOMETRIC_PRESENTATION_REPRESENTATION (  '', ( #214 ), #59 ) ;
#31 =( NAMED_UNIT ( * ) PLANE_ANGLE_UNIT ( ) SI_UNIT ( $, .RADIAN. ) );
#32 = ORIENTED_EDGE ( 'NONE', *, *, #153, .F. ) ;
#33 = SURFACE_SIDE_STYLE ('',( #179 ) ) ;
#34 =( LENGTH_UNIT ( ) NAMED_UNIT ( * ) SI_UNIT ( .MILLI., .METRE. ) );
#35 = SURFACE_STYLE_FILL_AREA ( #159 ) ;
#36 = EDGE_CURVE ( 'NONE', #4, #40, #144, .T. ) ;
#37 = FACE_OUTER_BOUND ( 'NONE', #6, .T. ) ;
#38 = EDGE_LOOP ( 'NONE', ( #75, #13, #108, #187 ) ) ;
#39 = LINE ( 'NONE', #45, #192 ) ;
#40 = VERTEX_POINT ( 'NONE', #169 ) ;
#41 = AXIS2_PLACEMENT_3D ( 'NONE', #68, #84, #47 ) ;
#42 = CARTESIAN_POINT ( 'NONE',  ( 0.0000000000000000000, 3.830320000000011900, 2.931065464465304200E-016 ) ) ;
#43 = CARTESIAN_POINT ( 'NONE',  ( 5.277137768673862700E-016, -3.830320000000011900, 2.934680079683984700E-016 ) ) ;
#44 = DIRECTION ( 'NONE',  ( 0.0000000000000000000, 1.000000000000000000, -4.718424594655427500E-020 ) ) ;
#45 = CARTESIAN_POINT ( 'NONE',  ( 0.0000000000000000000, -6.085975650608891300E-018, -128.9832131152861900 ) ) ;
#46 = ADVANCED_FACE ( 'NONE', ( #140 ), #147, .T. ) ;
#47 = DIRECTION ( 'NONE',  ( 0.0000000000000000000, -1.000000000000000000, 4.718424594655739300E-020 ) ) ;
#48 = EDGE_CURVE ( 'NONE', #40, #150, #166, .T. ) ;
#49 = DIRECTION ( 'NONE',  ( 0.0000000000000000000, -4.718424594655740500E-020, -1.000000000000000000 ) ) ;
#50 = CONICAL_SURFACE ( 'NONE', #64, 2414.213562373055100, 1.178097245096166600 ) ;
#51 = EDGE_LOOP ( 'NONE', ( #141, #152 ) ) ;
#52 = DIRECTION ( 'NONE',  ( 0.0000000000000000000, -1.000000000000000000, 0.0000000000000000000 ) ) ;
#53 = PRODUCT_CONTEXT ( 'NONE', #72, 'mechanical' ) ;
#54 = SHAPE_DEFINITION_REPRESENTATION ( #101, #195 ) ;
#55 = CONICAL_SURFACE ( 'NONE', #62, 2414.213562373055100, 1.178097245096166600 ) ;
#56 = FACE_OUTER_BOUND ( 'NONE', #51, .T. ) ;
#57 = EDGE_CURVE ( 'NONE', #18, #4, #23, .T. ) ;
#58 = COLOUR_RGB ( '',0.7921568627450980000, 0.8196078431372548800, 0.9333333333333333500 ) ;
#59 =( GEOMETRIC_REPRESENTATION_CONTEXT ( 3 ) GLOBAL_UNCERTAINTY_ASSIGNED_CONTEXT ( ( #177 ) ) GLOBAL_UNIT_ASSIGNED_CONTEXT ( ( #178, #162, #148 ) ) REPRESENTATION_CONTEXT ( 'NONE', 'WORKASPACE' ) );
#60 = ORIENTED_EDGE ( 'NONE', *, *, #91, .F. ) ;
#61 = EDGE_LOOP ( 'NONE', ( #165, #21, #168, #158 ) ) ;
#62 = AXIS2_PLACEMENT_3D ( 'NONE', #93, #125, #52 ) ;
#63 = DIRECTION ( 'NONE',  ( 0.0000000000000000000, -1.000000000000000000, 0.0000000000000000000 ) ) ;
#64 = AXIS2_PLACEMENT_3D ( 'NONE', #12, #128, #190 ) ;
#65 = VECTOR ( 'NONE', #102, 1000.000000000000000 ) ;
#66 = PLANE ( 'NONE',  #112 ) ;
#67 = ADVANCED_FACE ( 'NONE', ( #90 ), #104, .T. ) ;
#68 = CARTESIAN_POINT ( 'NONE',  ( 0.0000000000000000000, 0.0000000000000000000, 0.0000000000000000000 ) ) ;
#69 = CARTESIAN_POINT ( 'NONE',  ( 5.863486409637631000E-016, 4.787900000000014700, -127.0000000000000000 ) ) ;
#70 = DIRECTION ( 'NONE',  ( 0.0000000000000000000, 0.0000000000000000000, 1.000000000000000000 ) ) ;
#71 = PRESENTATION_LAYER_ASSIGNMENT (  '', '', ( #7 ) ) ;
#72 = APPLICATION_CONTEXT ( 'automotive_design' ) ;
#73 = CIRCLE ( 'NONE', #96, 4.787900000000008500 ) ;
#74 = CIRCLE ( 'NONE', #105, 3.830320000000011900 ) ;
#75 = ORIENTED_EDGE ( 'NONE', *, *, #5, .F. ) ;
#76 = PRODUCT_DEFINITION ( 'UNKNOWN', '', #205, #119 ) ;
#77 = MECHANICAL_DESIGN_GEOMETRIC_PRESENTATION_REPRESENTATION (  '', ( #7 ), #79 ) ;
#78 = LINE ( 'NONE', #42, #85 ) ;
#79 =( GEOMETRIC_REPRESENTATION_CONTEXT ( 3 ) GLOBAL_UNCERTAINTY_ASSIGNED_CONTEXT ( ( #115 ) ) GLOBAL_UNIT_ASSIGNED_CONTEXT ( ( #98, #191, #207 ) ) REPRESENTATION_CONTEXT ( 'NONE', 'WORKASPACE' ) );
#80 = ORIENTED_EDGE ( 'NONE', *, *, #57, .F. ) ;
#81 = MANIFOLD_SOLID_BREP ( '¸ðµû±â1', #100 ) ;
#82 = DIRECTION ( 'NONE',  ( 0.0000000000000000000, 1.000000000000000000, 0.0000000000000000000 ) ) ;
#83 = CARTESIAN_POINT ( 'NONE',  ( 0.0000000000000000000, -4.518269023350444700E-020, -0.9575800000000002100 ) ) ;
#84 = DIRECTION ( 'NONE',  ( -0.0000000000000000000, 4.718424594655739900E-020, 1.000000000000000000 ) ) ;
#85 = VECTOR ( 'NONE', #10, 1000.000000000000100 ) ;
#86 = DIRECTION ( 'NONE',  ( 0.0000000000000000000, -4.718424594655740500E-020, -1.000000000000000000 ) ) ;
#87 = VERTEX_POINT ( 'NONE', #43 ) ;
#88 = ADVANCED_FACE ( 'NONE', ( #56 ), #66, .F. ) ;
#89 = APPLICATION_PROTOCOL_DEFINITION ( 'draft international standard', 'automotive_design', 1998, #72 ) ;
#90 = FACE_OUTER_BOUND ( 'NONE', #38, .T. ) ;
#91 = EDGE_CURVE ( 'NONE', #4, #18, #181, .T. ) ;
#92 = ORIENTED_EDGE ( 'NONE', *, *, #26, .T. ) ;
#93 = CARTESIAN_POINT ( 'NONE',  ( 0.0000000000000000000, 4.109827029594851100E-017, 871.0167868847138400 ) ) ;
#94 = CONICAL_SURFACE ( 'NONE', #107, 3.830320000000011900, 0.7853981633974460600 ) ;
#95 = DIRECTION ( 'NONE',  ( 0.0000000000000000000, 1.000000000000000000, 0.0000000000000000000 ) ) ;
#96 = AXIS2_PLACEMENT_3D ( 'NONE', #175, #188, #95 ) ;
#97 = DIRECTION ( 'NONE',  ( -0.0000000000000000000, 4.718424594655739900E-020, 1.000000000000000000 ) ) ;
#98 =( LENGTH_UNIT ( ) NAMED_UNIT ( * ) SI_UNIT ( .MILLI., .METRE. ) );
#99 = PRESENTATION_STYLE_ASSIGNMENT (( #143 ) ) ;
#100 = CLOSED_SHELL ( 'NONE', ( #193, #157, #197, #88, #130, #67, #46 ) ) ;
#101 = PRODUCT_DEFINITION_SHAPE ( 'NONE', 'NONE',  #76 ) ;
#102 = DIRECTION ( 'NONE',  ( -0.0000000000000000000, 4.718424594655740500E-020, 1.000000000000000000 ) ) ;
#103 = CARTESIAN_POINT ( 'NONE',  ( 0.0000000000000000000, 0.0000000000000000000, 0.0000000000000000000 ) ) ;
#104 = CYLINDRICAL_SURFACE ( 'NONE', #41, 4.787900000000008500 ) ;
#105 = AXIS2_PLACEMENT_3D ( 'NONE', #116, #15, #145 ) ;
#106 = VERTEX_POINT ( 'NONE', #24 ) ;
#107 = AXIS2_PLACEMENT_3D ( 'NONE', #155, #156, #189 ) ;
#108 = ORIENTED_EDGE ( 'NONE', *, *, #36, .T. ) ;
#109 = AXIS2_PLACEMENT_3D ( 'NONE', #113, #14, #63 ) ;
#110 = LINE ( 'NONE', #118, #65 ) ;
#111 = DIRECTION ( 'NONE',  ( 0.0000000000000000000, 1.000000000000000000, -4.718424594655740500E-020 ) ) ;
#112 = AXIS2_PLACEMENT_3D ( 'NONE', #172, #129, #111 ) ;
#113 = CARTESIAN_POINT ( 'NONE',  ( 0.0000000000000000000, -5.992399235212789800E-018, -127.0000000000000000 ) ) ;
#114 = DIRECTION ( 'NONE',  ( 0.0000000000000000000, -1.000000000000000000, 4.718424594655739300E-020 ) ) ;
#115 = UNCERTAINTY_MEASURE_WITH_UNIT (LENGTH_MEASURE( 1.000000000000000100E-005 ), #98, 'distance_accuracy_value', 'NONE');
#116 = CARTESIAN_POINT ( 'NONE',  ( 0.0000000000000000000, 1.383853902075315600E-035, 2.932872772074644200E-016 ) ) ;
#117 =( NAMED_UNIT ( * ) SI_UNIT ( $, .STERADIAN. ) SOLID_ANGLE_UNIT ( ) );
#118 = CARTESIAN_POINT ( 'NONE',  ( 5.863486409637622200E-016, 4.787900000000008500, -2.259134511675225500E-019 ) ) ;
#119 = PRODUCT_DEFINITION_CONTEXT ( 'detailed design', #16, 'design' ) ;
#120 = ORIENTED_EDGE ( 'NONE', *, *, #139, .T. ) ;
#121 = ORIENTED_EDGE ( 'NONE', *, *, #199, .F. ) ;
#122 = CARTESIAN_POINT ( 'NONE',  ( 0.0000000000000000000, 1.383853902075315900E-035, 2.932872772074644200E-016 ) ) ;
#123 = ORIENTED_EDGE ( 'NONE', *, *, #164, .F. ) ;
#124 =( GEOMETRIC_REPRESENTATION_CONTEXT ( 3 ) GLOBAL_UNCERTAINTY_ASSIGNED_CONTEXT ( ( #167 ) ) GLOBAL_UNIT_ASSIGNED_CONTEXT ( ( #34, #31, #117 ) ) REPRESENTATION_CONTEXT ( 'NONE', 'WORKASPACE' ) );
#125 = DIRECTION ( 'NONE',  ( -0.0000000000000000000, 4.718424594655739900E-020, 1.000000000000000000 ) ) ;
#126 = CARTESIAN_POINT ( 'NONE',  ( 0.0000000000000000000, -5.992399235212789800E-018, -127.0000000000000000 ) ) ;
#127 = AXIS2_PLACEMENT_3D ( 'NONE', #8, #97, #114 ) ;
#128 = DIRECTION ( 'NONE',  ( -0.0000000000000000000, 4.718424594655739900E-020, 1.000000000000000000 ) ) ;
#129 = DIRECTION ( 'NONE',  ( 0.0000000000000000000, -4.718424594655740500E-020, -1.000000000000000000 ) ) ;
#130 = ADVANCED_FACE ( 'NONE', ( #135 ), #50, .T. ) ;
#131 = CARTESIAN_POINT ( 'NONE',  ( 0.0000000000000000000, -4.787900000000014700, -127.0000000000000000 ) ) ;
#132 = VECTOR ( 'NONE', #194, 1000.000000000000000 ) ;
#133 = ORIENTED_EDGE ( 'NONE', *, *, #153, .T. ) ;
#134 = DIRECTION ( 'NONE',  ( 0.0000000000000000000, 1.000000000000000000, -4.718424594655427500E-020 ) ) ;
#135 = FACE_OUTER_BOUND ( 'NONE', #137, .T. ) ;
#136 = PRESENTATION_STYLE_ASSIGNMENT (( #161 ) ) ;
#137 = EDGE_LOOP ( 'NONE', ( #210, #20, #80 ) ) ;
#138 = PRODUCT ( '03-0279', '03-0279', '', ( #53 ) ) ;
#139 = EDGE_CURVE ( 'NONE', #87, #40, #200, .T. ) ;
#140 = FACE_OUTER_BOUND ( 'NONE', #154, .T. ) ;
#141 = ORIENTED_EDGE ( 'NONE', *, *, #199, .T. ) ;
#142 = FILL_AREA_STYLE_COLOUR ( '', #58 ) ;
#143 = SURFACE_STYLE_USAGE ( .BOTH. , #29 ) ;
#144 = LINE ( 'NONE', #160, #180 ) ;
#145 = DIRECTION ( 'NONE',  ( 0.0000000000000000000, 1.000000000000000000, -4.718424594655427500E-020 ) ) ;
#146 = DIRECTION ( 'NONE',  ( 1.000000000000000000, 0.0000000000000000000, 0.0000000000000000000 ) ) ;
#147 = CONICAL_SURFACE ( 'NONE', #185, 3.830320000000011900, 0.7853981633974460600 ) ;
#148 =( NAMED_UNIT ( * ) SI_UNIT ( $, .STERADIAN. ) SOLID_ANGLE_UNIT ( ) );
#149 = AXIS2_PLACEMENT_3D ( 'NONE', #103, #70, #146 ) ;
#150 = VERTEX_POINT ( 'NONE', #27 ) ;
#151 = ORIENTED_EDGE ( 'NONE', *, *, #48, .F. ) ;
#152 = ORIENTED_EDGE ( 'NONE', *, *, #1, .T. ) ;
#153 = EDGE_CURVE ( 'NONE', #106, #150, #78, .T. ) ;
#154 = EDGE_LOOP ( 'NONE', ( #186, #121, #133, #151 ) ) ;
#155 = CARTESIAN_POINT ( 'NONE',  ( 0.0000000000000000000, 1.383853902075315900E-035, 2.932872772074644200E-016 ) ) ;
#156 = DIRECTION ( 'NONE',  ( 0.0000000000000000000, -4.718424594655740500E-020, -1.000000000000000000 ) ) ;
#157 = ADVANCED_FACE ( 'NONE', ( #28 ), #203, .T. ) ;
#158 = ORIENTED_EDGE ( 'NONE', *, *, #36, .F. ) ;
#159 = FILL_AREA_STYLE ('',( #142 ) ) ;
#160 = CARTESIAN_POINT ( 'NONE',  ( 0.0000000000000000000, -4.787900000000008500, 2.259134511675225500E-019 ) ) ;
#161 = SURFACE_STYLE_USAGE ( .BOTH. , #33 ) ;
#162 =( NAMED_UNIT ( * ) PLANE_ANGLE_UNIT ( ) SI_UNIT ( $, .RADIAN. ) );
#163 = CARTESIAN_POINT ( 'NONE',  ( 0.0000000000000000000, 1.383853902075315600E-035, 2.932872772074644200E-016 ) ) ;
#164 = EDGE_CURVE ( 'NONE', #150, #40, #73, .T. ) ;
#165 = ORIENTED_EDGE ( 'NONE', *, *, #91, .T. ) ;
#166 = CIRCLE ( 'NONE', #182, 4.787900000000008500 ) ;
#167 = UNCERTAINTY_MEASURE_WITH_UNIT (LENGTH_MEASURE( 1.000000000000000100E-005 ), #34, 'distance_accuracy_value', 'NONE');
#168 = ORIENTED_EDGE ( 'NONE', *, *, #164, .T. ) ;
#169 = CARTESIAN_POINT ( 'NONE',  ( 0.0000000000000000000, -4.787900000000008500, -0.9575800000000002100 ) ) ;
#170 = DIRECTION ( 'NONE',  ( 0.0000000000000000000, -1.000000000000000000, 0.0000000000000000000 ) ) ;
#171 = EDGE_CURVE ( 'NONE', #3, #4, #39, .T. ) ;
#172 = CARTESIAN_POINT ( 'NONE',  ( 0.0000000000000000000, 4.787900000000000500, 2.930613637562969100E-016 ) ) ;
#173 = DIRECTION ( 'NONE',  ( 0.0000000000000000000, -0.9238795325112845200, 0.3826834323650951700 ) ) ;
#174 = CARTESIAN_POINT ( 'NONE',  ( 0.0000000000000000000, -6.085975650608891300E-018, -128.9832131152861900 ) ) ;
#175 = CARTESIAN_POINT ( 'NONE',  ( 0.0000000000000000000, -4.518269023350444700E-020, -0.9575800000000002100 ) ) ;
#176 = FILL_AREA_STYLE ('',( #17 ) ) ;
#177 = UNCERTAINTY_MEASURE_WITH_UNIT (LENGTH_MEASURE( 1.000000000000000100E-005 ), #178, 'distance_accuracy_value', 'NONE');
#178 =( LENGTH_UNIT ( ) NAMED_UNIT ( * ) SI_UNIT ( .MILLI., .METRE. ) );
#179 = SURFACE_STYLE_FILL_AREA ( #176 ) ;
#180 = VECTOR ( 'NONE', #196, 1000.000000000000000 ) ;
#181 = CIRCLE ( 'NONE', #109, 4.787900000000014700 ) ;
#182 = AXIS2_PLACEMENT_3D ( 'NONE', #83, #49, #82 ) ;
#183 = PRESENTATION_LAYER_ASSIGNMENT (  '', '', ( #214 ) ) ;
#184 = LINE ( 'NONE', #212, #132 ) ;
#185 = AXIS2_PLACEMENT_3D ( 'NONE', #122, #86, #44 ) ;
#186 = ORIENTED_EDGE ( 'NONE', *, *, #139, .F. ) ;
#187 = ORIENTED_EDGE ( 'NONE', *, *, #48, .T. ) ;
#188 = DIRECTION ( 'NONE',  ( 0.0000000000000000000, -4.718424594655740500E-020, -1.000000000000000000 ) ) ;
#189 = DIRECTION ( 'NONE',  ( 0.0000000000000000000, 1.000000000000000000, -4.718424594655427500E-020 ) ) ;
#190 = DIRECTION ( 'NONE',  ( 0.0000000000000000000, -1.000000000000000000, 0.0000000000000000000 ) ) ;
#191 =( NAMED_UNIT ( * ) PLANE_ANGLE_UNIT ( ) SI_UNIT ( $, .RADIAN. ) );
#192 = VECTOR ( 'NONE', #173, 1000.000000000000000 ) ;
#193 = ADVANCED_FACE ( 'NONE', ( #37 ), #94, .T. ) ;
#194 = DIRECTION ( 'NONE',  ( 1.131426112287697500E-016, 0.9238795325112845200, 0.3826834323650951700 ) ) ;
#195 = ADVANCED_BREP_SHAPE_REPRESENTATION ( '03-0279', ( #81, #149 ), #124 ) ;
#196 = DIRECTION ( 'NONE',  ( -0.0000000000000000000, 4.718424594655740500E-020, 1.000000000000000000 ) ) ;
#197 = ADVANCED_FACE ( 'NONE', ( #201 ), #55, .T. ) ;
#198 = AXIS2_PLACEMENT_3D ( 'NONE', #163, #209, #134 ) ;
#199 = EDGE_CURVE ( 'NONE', #106, #87, #22, .T. ) ;
#200 = LINE ( 'NONE', #25, #2 ) ;
#201 = FACE_OUTER_BOUND ( 'NONE', #202, .T. ) ;
#202 = EDGE_LOOP ( 'NONE', ( #204, #92, #60 ) ) ;
#203 = CYLINDRICAL_SURFACE ( 'NONE', #127, 4.787900000000008500 ) ;
#204 = ORIENTED_EDGE ( 'NONE', *, *, #171, .F. ) ;
#205 = PRODUCT_DEFINITION_FORMATION_WITH_SPECIFIED_SOURCE ( 'ANY', '', #138, .NOT_KNOWN. ) ;
#206 = DIRECTION ( 'NONE',  ( -0.0000000000000000000, 4.718424594655739900E-020, 1.000000000000000000 ) ) ;
#207 =( NAMED_UNIT ( * ) SI_UNIT ( $, .STERADIAN. ) SOLID_ANGLE_UNIT ( ) );
#208 = PRODUCT_RELATED_PRODUCT_CATEGORY ( 'part', '', ( #138 ) ) ;
#209 = DIRECTION ( 'NONE',  ( -0.0000000000000000000, 4.718424594655739900E-020, 1.000000000000000000 ) ) ;
#210 = ORIENTED_EDGE ( 'NONE', *, *, #26, .F. ) ;
#211 = ORIENTED_EDGE ( 'NONE', *, *, #1, .F. ) ;
#212 = CARTESIAN_POINT ( 'NONE',  ( 0.0000000000000000000, -6.085975650608891300E-018, -128.9832131152861900 ) ) ;
#213 = APPLICATION_PROTOCOL_DEFINITION ( 'draft international standard', 'automotive_design', 1998, #16 ) ;
#214 = STYLED_ITEM ( 'NONE', ( #136 ), #195 ) ;
ENDSEC;
END-ISO-10303-21;
