ISO-10303-21;
HEADER;
FILE_DESCRIPTION (( 'STEP AP214' ),
    '1' );
FILE_NAME ('03-0280.STEP',
    '2020-07-23T06:15:50',
    ( '' ),
    ( '' ),
    'SwSTEP 2.0',
    'SolidWorks 2014',
    '' );
FILE_SCHEMA (( 'AUTOMOTIVE_DESIGN' ));
ENDSEC;

DATA;
#1 = ORIENTED_EDGE ( 'NONE', *, *, #45, .T. ) ;
#2 = DIRECTION ( 'NONE',  ( 0.0000000000000000000, -3.292750924699383200E-020, -1.000000000000000000 ) ) ;
#3 = CARTESIAN_POINT ( 'NONE',  ( 0.0000000000000000000, -4.353199724509239200E-018, -132.2055577254654100 ) ) ;
#4 = VECTOR ( 'NONE', #206, 1000.000000000000000 ) ;
#5 = EDGE_LOOP ( 'NONE', ( #184, #106, #103 ) ) ;
#6 =( NAMED_UNIT ( * ) PLANE_ANGLE_UNIT ( ) SI_UNIT ( $, .RADIAN. ) );
#7 = DIRECTION ( 'NONE',  ( 0.0000000000000000000, 0.7071067811865460200, -0.7071067811865490200 ) ) ;
#8 = DIRECTION ( 'NONE',  ( 0.0000000000000000000, -3.292750924699383800E-020, -1.000000000000000000 ) ) ;
#9 = APPLICATION_PROTOCOL_DEFINITION ( 'draft international standard', 'automotive_design', 1998, #80 ) ;
#10 = DIRECTION ( 'NONE',  ( 0.0000000000000000000, -1.000000000000000000, 0.0000000000000000000 ) ) ;
#11 =( NAMED_UNIT ( * ) PLANE_ANGLE_UNIT ( ) SI_UNIT ( $, .RADIAN. ) );
#12 = ORIENTED_EDGE ( 'NONE', *, *, #65, .F. ) ;
#13 = MECHANICAL_DESIGN_GEOMETRIC_PRESENTATION_REPRESENTATION (  '', ( #140 ), #23 ) ;
#14 = DIRECTION ( 'NONE',  ( 0.0000000000000000000, -3.292750924699383800E-020, -1.000000000000000000 ) ) ;
#15 = ORIENTED_EDGE ( 'NONE', *, *, #34, .T. ) ;
#16 = UNCERTAINTY_MEASURE_WITH_UNIT (LENGTH_MEASURE( 1.000000000000000100E-005 ), #73, 'distance_accuracy_value', 'NONE');
#17 = DIRECTION ( 'NONE',  ( -0.0000000000000000000, 3.292750924699383200E-020, 1.000000000000000000 ) ) ;
#18 = CIRCLE ( 'NONE', #82, 4.902200000000016500 ) ;
#19 = FACE_OUTER_BOUND ( 'NONE', #116, .T. ) ;
#20 = DIRECTION ( 'NONE',  ( 0.0000000000000000000, 1.000000000000000000, 0.0000000000000000000 ) ) ;
#21 = CARTESIAN_POINT ( 'NONE',  ( 0.0000000000000000000, 2.857430952248459200E-017, 867.7944422745346200 ) ) ;
#22 = CARTESIAN_POINT ( 'NONE',  ( 0.0000000000000000000, -4.902200000000014800, -130.1749999999999800 ) ) ;
#23 =( GEOMETRIC_REPRESENTATION_CONTEXT ( 3 ) GLOBAL_UNCERTAINTY_ASSIGNED_CONTEXT ( ( #16 ) ) GLOBAL_UNIT_ASSIGNED_CONTEXT ( ( #73, #6, #40 ) ) REPRESENTATION_CONTEXT ( 'NONE', 'WORKASPACE' ) );
#24 = CARTESIAN_POINT ( 'NONE',  ( 0.0000000000000000000, 9.886612593121413400E-036, 3.002538855569231200E-016 ) ) ;
#25 = ORIENTED_EDGE ( 'NONE', *, *, #45, .F. ) ;
#26 = APPLICATION_CONTEXT ( 'automotive_design' ) ;
#27 = VERTEX_POINT ( 'NONE', #3 ) ;
#28 = EDGE_CURVE ( 'NONE', #156, #93, #209, .T. ) ;
#29 = FACE_OUTER_BOUND ( 'NONE', #131, .T. ) ;
#30 = SHAPE_DEFINITION_REPRESENTATION ( #189, #198 ) ;
#31 = EDGE_CURVE ( 'NONE', #27, #180, #197, .T. ) ;
#32 = FACE_OUTER_BOUND ( 'NONE', #41, .T. ) ;
#33 = CIRCLE ( 'NONE', #185, 4.902200000000008600 ) ;
#34 = EDGE_CURVE ( 'NONE', #93, #183, #113, .T. ) ;
#35 = CARTESIAN_POINT ( 'NONE',  ( 0.0000000000000000000, -3.228344716612362500E-020, -0.9804400000000300700 ) ) ;
#36 = CLOSED_SHELL ( 'NONE', ( #78, #108, #190, #59, #57, #153, #194 ) ) ;
#37 = DIRECTION ( 'NONE',  ( 0.0000000000000000000, 1.000000000000000000, 0.0000000000000000000 ) ) ;
#38 = CARTESIAN_POINT ( 'NONE',  ( 0.0000000000000000000, 0.0000000000000000000, 0.0000000000000000000 ) ) ;
#39 = PRESENTATION_LAYER_ASSIGNMENT (  '', '', ( #140 ) ) ;
#40 =( NAMED_UNIT ( * ) SI_UNIT ( $, .STERADIAN. ) SOLID_ANGLE_UNIT ( ) );
#41 = EDGE_LOOP ( 'NONE', ( #144, #1, #181, #129 ) ) ;
#42 = CARTESIAN_POINT ( 'NONE',  ( 0.0000000000000000000, -4.286338516227421700E-018, -130.1749999999999800 ) ) ;
#43 = CIRCLE ( 'NONE', #63, 3.921759999999982600 ) ;
#44 = ORIENTED_EDGE ( 'NONE', *, *, #102, .F. ) ;
#45 = EDGE_CURVE ( 'NONE', #180, #135, #187, .T. ) ;
#46 = ORIENTED_EDGE ( 'NONE', *, *, #65, .T. ) ;
#47 = MECHANICAL_DESIGN_GEOMETRIC_PRESENTATION_REPRESENTATION (  '', ( #100 ), #158 ) ;
#48 = COLOUR_RGB ( '',0.7921568627450980000, 0.8196078431372548800, 0.9333333333333333500 ) ;
#49 = ORIENTED_EDGE ( 'NONE', *, *, #195, .F. ) ;
#50 = ORIENTED_EDGE ( 'NONE', *, *, #31, .F. ) ;
#51 = CARTESIAN_POINT ( 'NONE',  ( 0.0000000000000000000, 9.886612593121414700E-036, 3.002538855569231200E-016 ) ) ;
#52 = AXIS2_PLACEMENT_3D ( 'NONE', #74, #91, #94 ) ;
#53 = CIRCLE ( 'NONE', #171, 4.902200000000008600 ) ;
#54 = CARTESIAN_POINT ( 'NONE',  ( 0.0000000000000000000, -3.228344716612362500E-020, -0.9804400000000300700 ) ) ;
#55 = DIRECTION ( 'NONE',  ( 0.0000000000000000000, 1.000000000000000000, -3.292750924698983000E-020 ) ) ;
#56 = CARTESIAN_POINT ( 'NONE',  ( 0.0000000000000000000, 9.886612593121413400E-036, 3.002538855569231200E-016 ) ) ;
#57 = ADVANCED_FACE ( 'NONE', ( #67 ), #208, .T. ) ;
#58 = ORIENTED_EDGE ( 'NONE', *, *, #28, .T. ) ;
#59 = ADVANCED_FACE ( 'NONE', ( #101 ), #76, .F. ) ;
#60 = CARTESIAN_POINT ( 'NONE',  ( 0.0000000000000000000, 0.0000000000000000000, 0.0000000000000000000 ) ) ;
#61 = SURFACE_SIDE_STYLE ('',( #166 ) ) ;
#62 = VECTOR ( 'NONE', #191, 1000.000000000000000 ) ;
#63 = AXIS2_PLACEMENT_3D ( 'NONE', #124, #157, #88 ) ;
#64 = CARTESIAN_POINT ( 'NONE',  ( 0.0000000000000000000, 4.902200000000000600, 3.000924683210924900E-016 ) ) ;
#65 = EDGE_CURVE ( 'NONE', #183, #135, #33, .T. ) ;
#66 = FACE_OUTER_BOUND ( 'NONE', #188, .T. ) ;
#67 = FACE_OUTER_BOUND ( 'NONE', #214, .T. ) ;
#68 = DIRECTION ( 'NONE',  ( 1.131426112287697500E-016, 0.9238795325112845200, 0.3826834323650951700 ) ) ;
#69 = DIRECTION ( 'NONE',  ( 0.0000000000000000000, 1.000000000000000000, -3.292750924698983000E-020 ) ) ;
#70 = AXIS2_PLACEMENT_3D ( 'NONE', #90, #172, #122 ) ;
#71 = SURFACE_STYLE_USAGE ( .BOTH. , #133 ) ;
#72 = PRODUCT_DEFINITION ( 'UNKNOWN', '', #98, #115 ) ;
#73 =( LENGTH_UNIT ( ) NAMED_UNIT ( * ) SI_UNIT ( .MILLI., .METRE. ) );
#74 = CARTESIAN_POINT ( 'NONE',  ( 0.0000000000000000000, -4.286338516227421700E-018, -130.1749999999999800 ) ) ;
#75 = VECTOR ( 'NONE', #7, 1000.000000000000100 ) ;
#76 = PLANE ( 'NONE',  #118 ) ;
#77 =( NAMED_UNIT ( * ) PLANE_ANGLE_UNIT ( ) SI_UNIT ( $, .RADIAN. ) );
#78 = ADVANCED_FACE ( 'NONE', ( #19 ), #161, .T. ) ;
#79 = PRODUCT_CONTEXT ( 'NONE', #26, 'mechanical' ) ;
#80 = APPLICATION_CONTEXT ( 'automotive_design' ) ;
#81 = VECTOR ( 'NONE', #68, 1000.000000000000000 ) ;
#82 = AXIS2_PLACEMENT_3D ( 'NONE', #42, #177, #10 ) ;
#83 = PRESENTATION_STYLE_ASSIGNMENT (( #211 ) ) ;
#84 = ORIENTED_EDGE ( 'NONE', *, *, #28, .F. ) ;
#85 = PRODUCT ( '03-0280', '03-0280', '', ( #79 ) ) ;
#86 = LINE ( 'NONE', #174, #75 ) ;
#87 = SURFACE_STYLE_FILL_AREA ( #151 ) ;
#88 = DIRECTION ( 'NONE',  ( 0.0000000000000000000, 1.000000000000000000, -3.292750924698983000E-020 ) ) ;
#89 = EDGE_CURVE ( 'NONE', #135, #183, #53, .T. ) ;
#90 = CARTESIAN_POINT ( 'NONE',  ( 0.0000000000000000000, 2.857430952248459200E-017, 867.7944422745346200 ) ) ;
#91 = DIRECTION ( 'NONE',  ( -0.0000000000000000000, 3.292750924699383200E-020, 1.000000000000000000 ) ) ;
#92 = ORIENTED_EDGE ( 'NONE', *, *, #34, .F. ) ;
#93 = VERTEX_POINT ( 'NONE', #134 ) ;
#94 = DIRECTION ( 'NONE',  ( 0.0000000000000000000, -1.000000000000000000, 0.0000000000000000000 ) ) ;
#95 =( LENGTH_UNIT ( ) NAMED_UNIT ( * ) SI_UNIT ( .MILLI., .METRE. ) );
#96 = FILL_AREA_STYLE ('',( #110 ) ) ;
#97 = CONICAL_SURFACE ( 'NONE', #70, 2414.213562373055100, 1.178097245096166600 ) ;
#98 = PRODUCT_DEFINITION_FORMATION_WITH_SPECIFIED_SOURCE ( 'ANY', '', #85, .NOT_KNOWN. ) ;
#99 = LINE ( 'NONE', #168, #175 ) ;
#100 = STYLED_ITEM ( 'NONE', ( #83 ), #198 ) ;
#101 = FACE_OUTER_BOUND ( 'NONE', #193, .T. ) ;
#102 = EDGE_CURVE ( 'NONE', #180, #132, #119, .T. ) ;
#103 = ORIENTED_EDGE ( 'NONE', *, *, #196, .F. ) ;
#104 = CARTESIAN_POINT ( 'NONE',  ( 0.0000000000000000000, 0.0000000000000000000, 0.0000000000000000000 ) ) ;
#105 = CARTESIAN_POINT ( 'NONE',  ( 6.003463538780164900E-016, 4.902200000000008600, -0.9804400000000300700 ) ) ;
#106 = ORIENTED_EDGE ( 'NONE', *, *, #31, .T. ) ;
#107 = DIRECTION ( 'NONE',  ( 0.0000000000000000000, -1.000000000000000000, 3.292750924699382600E-020 ) ) ;
#108 = ADVANCED_FACE ( 'NONE', ( #32 ), #200, .T. ) ;
#109 = APPLICATION_PROTOCOL_DEFINITION ( 'draft international standard', 'automotive_design', 1998, #26 ) ;
#110 = FILL_AREA_STYLE_COLOUR ( '', #48 ) ;
#111 = DIRECTION ( 'NONE',  ( 0.0000000000000000000, 0.0000000000000000000, 1.000000000000000000 ) ) ;
#112 = AXIS2_PLACEMENT_3D ( 'NONE', #104, #17, #121 ) ;
#113 = LINE ( 'NONE', #139, #149 ) ;
#114 = UNCERTAINTY_MEASURE_WITH_UNIT (LENGTH_MEASURE( 1.000000000000000100E-005 ), #212, 'distance_accuracy_value', 'NONE');
#115 = PRODUCT_DEFINITION_CONTEXT ( 'detailed design', #80, 'design' ) ;
#116 = EDGE_LOOP ( 'NONE', ( #49, #15, #146, #155 ) ) ;
#117 = DIRECTION ( 'NONE',  ( -0.0000000000000000000, 3.292750924699383200E-020, 1.000000000000000000 ) ) ;
#118 = AXIS2_PLACEMENT_3D ( 'NONE', #64, #2, #182 ) ;
#119 = CIRCLE ( 'NONE', #52, 4.902200000000016500 ) ;
#120 = DIRECTION ( 'NONE',  ( 0.0000000000000000000, -3.292750924699383800E-020, -1.000000000000000000 ) ) ;
#121 = DIRECTION ( 'NONE',  ( 0.0000000000000000000, -1.000000000000000000, 3.292750924699382600E-020 ) ) ;
#122 = DIRECTION ( 'NONE',  ( 0.0000000000000000000, -1.000000000000000000, 0.0000000000000000000 ) ) ;
#123 = ORIENTED_EDGE ( 'NONE', *, *, #102, .T. ) ;
#124 = CARTESIAN_POINT ( 'NONE',  ( 0.0000000000000000000, 9.886612593121414700E-036, 3.002538855569231200E-016 ) ) ;
#125 = PRODUCT_RELATED_PRODUCT_CATEGORY ( 'part', '', ( #85 ) ) ;
#126 =( NAMED_UNIT ( * ) SI_UNIT ( $, .STERADIAN. ) SOLID_ANGLE_UNIT ( ) );
#127 = UNCERTAINTY_MEASURE_WITH_UNIT (LENGTH_MEASURE( 1.000000000000000100E-005 ), #95, 'distance_accuracy_value', 'NONE');
#128 = DIRECTION ( 'NONE',  ( 1.000000000000000000, 0.0000000000000000000, 0.0000000000000000000 ) ) ;
#129 = ORIENTED_EDGE ( 'NONE', *, *, #207, .F. ) ;
#130 = ORIENTED_EDGE ( 'NONE', *, *, #207, .T. ) ;
#131 = EDGE_LOOP ( 'NONE', ( #25, #123, #130, #46 ) ) ;
#132 = VERTEX_POINT ( 'NONE', #22 ) ;
#133 = SURFACE_SIDE_STYLE ('',( #87 ) ) ;
#134 = CARTESIAN_POINT ( 'NONE',  ( 5.403117184902134000E-016, -3.921759999999982600, 3.003830193455875800E-016 ) ) ;
#135 = VERTEX_POINT ( 'NONE', #105 ) ;
#136 = EDGE_CURVE ( 'NONE', #156, #135, #86, .T. ) ;
#137 = DIRECTION ( 'NONE',  ( -0.0000000000000000000, 3.292750924699383200E-020, 1.000000000000000000 ) ) ;
#138 = LINE ( 'NONE', #148, #62 ) ;
#139 = CARTESIAN_POINT ( 'NONE',  ( 4.802770831024102000E-016, -3.921759999999982600, 3.003830193455875800E-016 ) ) ;
#140 = STYLED_ITEM ( 'NONE', ( #162 ), #141 ) ;
#141 = MANIFOLD_SOLID_BREP ( '¸ðµû±â1', #36 ) ;
#142 = FACE_OUTER_BOUND ( 'NONE', #5, .T. ) ;
#143 = AXIS2_PLACEMENT_3D ( 'NONE', #21, #137, #173 ) ;
#144 = ORIENTED_EDGE ( 'NONE', *, *, #196, .T. ) ;
#145 = EDGE_CURVE ( 'NONE', #27, #132, #138, .T. ) ;
#146 = ORIENTED_EDGE ( 'NONE', *, *, #89, .F. ) ;
#147 = CARTESIAN_POINT ( 'NONE',  ( 6.003463538780164900E-016, 4.902200000000008600, -1.614172358306134200E-019 ) ) ;
#148 = CARTESIAN_POINT ( 'NONE',  ( 0.0000000000000000000, -4.353199724509239200E-018, -132.2055577254654100 ) ) ;
#149 = VECTOR ( 'NONE', #159, 1000.000000000000100 ) ;
#150 = AXIS2_PLACEMENT_3D ( 'NONE', #38, #192, #107 ) ;
#151 = FILL_AREA_STYLE ('',( #169 ) ) ;
#152 = DIRECTION ( 'NONE',  ( 0.0000000000000000000, -3.292750924699383800E-020, -1.000000000000000000 ) ) ;
#153 = ADVANCED_FACE ( 'NONE', ( #29 ), #199, .T. ) ;
#154 = CARTESIAN_POINT ( 'NONE',  ( 6.003463538780171800E-016, 4.902200000000014800, -130.1749999999999800 ) ) ;
#155 = ORIENTED_EDGE ( 'NONE', *, *, #136, .F. ) ;
#156 = VERTEX_POINT ( 'NONE', #205 ) ;
#157 = DIRECTION ( 'NONE',  ( -0.0000000000000000000, 3.292750924699383200E-020, 1.000000000000000000 ) ) ;
#158 =( GEOMETRIC_REPRESENTATION_CONTEXT ( 3 ) GLOBAL_UNCERTAINTY_ASSIGNED_CONTEXT ( ( #114 ) ) GLOBAL_UNIT_ASSIGNED_CONTEXT ( ( #212, #11, #126 ) ) REPRESENTATION_CONTEXT ( 'NONE', 'WORKASPACE' ) );
#159 = DIRECTION ( 'NONE',  ( 8.659560562354913100E-017, -0.7071067811865460200, -0.7071067811865490200 ) ) ;
#160 = AXIS2_PLACEMENT_3D ( 'NONE', #51, #117, #69 ) ;
#161 = CONICAL_SURFACE ( 'NONE', #167, 3.921759999999982600, 0.7853981633974460600 ) ;
#162 = PRESENTATION_STYLE_ASSIGNMENT (( #71 ) ) ;
#163 = AXIS2_PLACEMENT_3D ( 'NONE', #56, #8, #55 ) ;
#164 = ORIENTED_EDGE ( 'NONE', *, *, #145, .T. ) ;
#165 = AXIS2_PLACEMENT_3D ( 'NONE', #60, #111, #128 ) ;
#166 = SURFACE_STYLE_FILL_AREA ( #96 ) ;
#167 = AXIS2_PLACEMENT_3D ( 'NONE', #24, #120, #186 ) ;
#168 = CARTESIAN_POINT ( 'NONE',  ( 0.0000000000000000000, -4.902200000000008600, 1.614172358306134200E-019 ) ) ;
#169 = FILL_AREA_STYLE_COLOUR ( '', #203 ) ;
#170 = ORIENTED_EDGE ( 'NONE', *, *, #136, .T. ) ;
#171 = AXIS2_PLACEMENT_3D ( 'NONE', #54, #152, #20 ) ;
#172 = DIRECTION ( 'NONE',  ( -0.0000000000000000000, 3.292750924699383200E-020, 1.000000000000000000 ) ) ;
#173 = DIRECTION ( 'NONE',  ( 0.0000000000000000000, -1.000000000000000000, 0.0000000000000000000 ) ) ;
#174 = CARTESIAN_POINT ( 'NONE',  ( 0.0000000000000000000, 3.921759999999982600, 3.001247517682586600E-016 ) ) ;
#175 = VECTOR ( 'NONE', #204, 1000.000000000000000 ) ;
#176 = ORIENTED_EDGE ( 'NONE', *, *, #195, .T. ) ;
#177 = DIRECTION ( 'NONE',  ( -0.0000000000000000000, 3.292750924699383200E-020, 1.000000000000000000 ) ) ;
#178 =( GEOMETRIC_REPRESENTATION_CONTEXT ( 3 ) GLOBAL_UNCERTAINTY_ASSIGNED_CONTEXT ( ( #127 ) ) GLOBAL_UNIT_ASSIGNED_CONTEXT ( ( #95, #77, #213 ) ) REPRESENTATION_CONTEXT ( 'NONE', 'WORKASPACE' ) );
#179 = CONICAL_SURFACE ( 'NONE', #163, 3.921759999999982600, 0.7853981633974460600 ) ;
#180 = VERTEX_POINT ( 'NONE', #154 ) ;
#181 = ORIENTED_EDGE ( 'NONE', *, *, #89, .T. ) ;
#182 = DIRECTION ( 'NONE',  ( 0.0000000000000000000, 1.000000000000000000, -3.292750924699383200E-020 ) ) ;
#183 = VERTEX_POINT ( 'NONE', #210 ) ;
#184 = ORIENTED_EDGE ( 'NONE', *, *, #145, .F. ) ;
#185 = AXIS2_PLACEMENT_3D ( 'NONE', #35, #14, #37 ) ;
#186 = DIRECTION ( 'NONE',  ( 0.0000000000000000000, 1.000000000000000000, -3.292750924698983000E-020 ) ) ;
#187 = LINE ( 'NONE', #147, #4 ) ;
#188 = EDGE_LOOP ( 'NONE', ( #92, #84, #170, #12 ) ) ;
#189 = PRODUCT_DEFINITION_SHAPE ( 'NONE', 'NONE',  #72 ) ;
#190 = ADVANCED_FACE ( 'NONE', ( #142 ), #97, .T. ) ;
#191 = DIRECTION ( 'NONE',  ( 0.0000000000000000000, -0.9238795325112845200, 0.3826834323650951700 ) ) ;
#192 = DIRECTION ( 'NONE',  ( -0.0000000000000000000, 3.292750924699383200E-020, 1.000000000000000000 ) ) ;
#193 = EDGE_LOOP ( 'NONE', ( #58, #176 ) ) ;
#194 = ADVANCED_FACE ( 'NONE', ( #66 ), #179, .T. ) ;
#195 = EDGE_CURVE ( 'NONE', #93, #156, #43, .T. ) ;
#196 = EDGE_CURVE ( 'NONE', #132, #180, #18, .T. ) ;
#197 = LINE ( 'NONE', #201, #81 ) ;
#198 = ADVANCED_BREP_SHAPE_REPRESENTATION ( '03-0280', ( #141, #165 ), #178 ) ;
#199 = CYLINDRICAL_SURFACE ( 'NONE', #150, 4.902200000000008600 ) ;
#200 = CYLINDRICAL_SURFACE ( 'NONE', #112, 4.902200000000008600 ) ;
#201 = CARTESIAN_POINT ( 'NONE',  ( 0.0000000000000000000, -4.353199724509239200E-018, -132.2055577254654100 ) ) ;
#202 = PRESENTATION_LAYER_ASSIGNMENT (  '', '', ( #100 ) ) ;
#203 = COLOUR_RGB ( '',0.7921568627450980000, 0.8196078431372548800, 0.9333333333333333500 ) ;
#204 = DIRECTION ( 'NONE',  ( -0.0000000000000000000, 3.292750924699383200E-020, 1.000000000000000000 ) ) ;
#205 = CARTESIAN_POINT ( 'NONE',  ( 0.0000000000000000000, 3.921759999999982600, 3.001247517682586600E-016 ) ) ;
#206 = DIRECTION ( 'NONE',  ( -0.0000000000000000000, 3.292750924699383200E-020, 1.000000000000000000 ) ) ;
#207 = EDGE_CURVE ( 'NONE', #132, #183, #99, .T. ) ;
#208 = CONICAL_SURFACE ( 'NONE', #143, 2414.213562373055100, 1.178097245096166600 ) ;
#209 = CIRCLE ( 'NONE', #160, 3.921759999999982600 ) ;
#210 = CARTESIAN_POINT ( 'NONE',  ( 0.0000000000000000000, -4.902200000000008600, -0.9804400000000300700 ) ) ;
#211 = SURFACE_STYLE_USAGE ( .BOTH. , #61 ) ;
#212 =( LENGTH_UNIT ( ) NAMED_UNIT ( * ) SI_UNIT ( .MILLI., .METRE. ) );
#213 =( NAMED_UNIT ( * ) SI_UNIT ( $, .STERADIAN. ) SOLID_ANGLE_UNIT ( ) );
#214 = EDGE_LOOP ( 'NONE', ( #50, #164, #44 ) ) ;
ENDSEC;
END-ISO-10303-21;
