ISO-10303-21;
HEADER;
FILE_DESCRIPTION (( 'STEP AP214' ),
    '1' );
FILE_NAME ('03-0281.STEP',
    '2020-07-23T06:16:31',
    ( '' ),
    ( '' ),
    'SwSTEP 2.0',
    'SolidWorks 2014',
    '' );
FILE_SCHEMA (( 'AUTOMOTIVE_DESIGN' ));
ENDSEC;

DATA;
#1 = DIRECTION ( 'NONE',  ( -0.0000000000000000000, -9.311423805311009000E-020, 1.000000000000000000 ) ) ;
#2 = LINE ( 'NONE', #191, #205 ) ;
#3 = APPLICATION_CONTEXT ( 'automotive_design' ) ;
#4 = AXIS2_PLACEMENT_3D ( 'NONE', #185, #93, #8 ) ;
#5 = EDGE_CURVE ( 'NONE', #186, #22, #104, .T. ) ;
#6 =( NAMED_UNIT ( * ) PLANE_ANGLE_UNIT ( ) SI_UNIT ( $, .RADIAN. ) );
#7 = ADVANCED_BREP_SHAPE_REPRESENTATION ( '03-0281', ( #16, #203 ), #149 ) ;
#8 = DIRECTION ( 'NONE',  ( 0.0000000000000000000, -1.000000000000000000, -9.311423805311009000E-020 ) ) ;
#9 = CARTESIAN_POINT ( 'NONE',  ( 0.0000000000000000000, -8.079863016463576600E-017, 867.7365766398710300 ) ) ;
#10 = FACE_OUTER_BOUND ( 'NONE', #79, .T. ) ;
#11 = CARTESIAN_POINT ( 'NONE',  ( 6.174546696621048900E-016, 5.041900000000007200, 4.694726768399764400E-019 ) ) ;
#12 =( GEOMETRIC_REPRESENTATION_CONTEXT ( 3 ) GLOBAL_UNCERTAINTY_ASSIGNED_CONTEXT ( ( #91 ) ) GLOBAL_UNIT_ASSIGNED_CONTEXT ( ( #101, #77, #144 ) ) REPRESENTATION_CONTEXT ( 'NONE', 'WORKASPACE' ) );
#13 = CARTESIAN_POINT ( 'NONE',  ( 5.557092026958931500E-016, -4.033519999999985100, 3.081170203511600600E-016 ) ) ;
#14 = EDGE_CURVE ( 'NONE', #81, #33, #184, .T. ) ;
#15 = AXIS2_PLACEMENT_3D ( 'NONE', #49, #62, #163 ) ;
#16 = MANIFOLD_SOLID_BREP ( '¸ðµû±â1', #131 ) ;
#17 = MECHANICAL_DESIGN_GEOMETRIC_PRESENTATION_REPRESENTATION (  '', ( #154 ), #12 ) ;
#18 = AXIS2_PLACEMENT_3D ( 'NONE', #9, #38, #164 ) ;
#19 = PRESENTATION_LAYER_ASSIGNMENT (  '', '', ( #133 ) ) ;
#20 = CARTESIAN_POINT ( 'NONE',  ( 0.0000000000000000000, -8.079863016463576600E-017, 867.7365766398710300 ) ) ;
#21 = DIRECTION ( 'NONE',  ( -0.0000000000000000000, -9.311423805311009000E-020, 1.000000000000000000 ) ) ;
#22 = VERTEX_POINT ( 'NONE', #56 ) ;
#23 =( NAMED_UNIT ( * ) SI_UNIT ( $, .STERADIAN. ) SOLID_ANGLE_UNIT ( ) );
#24 = CARTESIAN_POINT ( 'NONE',  ( 0.0000000000000000000, -5.041900000000007200, -1.008380000000025600 ) ) ;
#25 = APPLICATION_PROTOCOL_DEFINITION ( 'draft international standard', 'automotive_design', 1998, #3 ) ;
#26 = CIRCLE ( 'NONE', #92, 5.041900000000007200 ) ;
#27 = EDGE_LOOP ( 'NONE', ( #166, #112, #206 ) ) ;
#28 = ORIENTED_EDGE ( 'NONE', *, *, #82, .T. ) ;
#29 = VECTOR ( 'NONE', #207, 1000.000000000000000 ) ;
#30 = PRODUCT_DEFINITION ( 'UNKNOWN', '', #44, #76 ) ;
#31 = ORIENTED_EDGE ( 'NONE', *, *, #171, .T. ) ;
#32 = CONICAL_SURFACE ( 'NONE', #168, 2414.213562373041400, 1.178097245096164600 ) ;
#33 = VERTEX_POINT ( 'NONE', #175 ) ;
#34 = MECHANICAL_DESIGN_GEOMETRIC_PRESENTATION_REPRESENTATION (  '', ( #133 ), #200 ) ;
#35 = DIRECTION ( 'NONE',  ( 0.0000000000000000000, 1.000000000000000000, 9.311423805311009000E-020 ) ) ;
#36 = CARTESIAN_POINT ( 'NONE',  ( 0.0000000000000000000, -2.872505325366545100E-035, 3.084925984926320400E-016 ) ) ;
#37 = ORIENTED_EDGE ( 'NONE', *, *, #201, .T. ) ;
#38 = DIRECTION ( 'NONE',  ( -0.0000000000000000000, -9.311423805311009000E-020, 1.000000000000000000 ) ) ;
#39 = DIRECTION ( 'NONE',  ( 0.0000000000000000000, 9.311423805311009000E-020, -1.000000000000000000 ) ) ;
#40 = UNCERTAINTY_MEASURE_WITH_UNIT (LENGTH_MEASURE( 1.000000000000000100E-005 ), #122, 'distance_accuracy_value', 'NONE');
#41 = ADVANCED_FACE ( 'NONE', ( #198 ), #181, .T. ) ;
#42 = LINE ( 'NONE', #188, #170 ) ;
#43 = DIRECTION ( 'NONE',  ( 0.0000000000000000000, 0.0000000000000000000, 1.000000000000000000 ) ) ;
#44 = PRODUCT_DEFINITION_FORMATION_WITH_SPECIFIED_SOURCE ( 'ANY', '', #151, .NOT_KNOWN. ) ;
#45 = ADVANCED_FACE ( 'NONE', ( #52 ), #32, .T. ) ;
#46 = DIRECTION ( 'NONE',  ( 0.0000000000000000000, 1.000000000000000000, 0.0000000000000000000 ) ) ;
#47 = UNCERTAINTY_MEASURE_WITH_UNIT (LENGTH_MEASURE( 1.000000000000000100E-005 ), #143, 'distance_accuracy_value', 'NONE');
#48 = ORIENTED_EDGE ( 'NONE', *, *, #82, .F. ) ;
#49 = CARTESIAN_POINT ( 'NONE',  ( 0.0000000000000000000, 1.212114593856360500E-017, -130.1749999999999800 ) ) ;
#50 = CONICAL_SURFACE ( 'NONE', #18, 2414.213562373041400, 1.178097245096164600 ) ;
#51 = CARTESIAN_POINT ( 'NONE',  ( 0.0000000000000000000, 4.033519999999985100, 3.088681766341040300E-016 ) ) ;
#52 = FACE_OUTER_BOUND ( 'NONE', #119, .T. ) ;
#53 = SHAPE_DEFINITION_REPRESENTATION ( #135, #7 ) ;
#54 = ORIENTED_EDGE ( 'NONE', *, *, #157, .F. ) ;
#55 = DIRECTION ( 'NONE',  ( 0.0000000000000000000, 9.311423805311009000E-020, -1.000000000000000000 ) ) ;
#56 = CARTESIAN_POINT ( 'NONE',  ( 0.0000000000000000000, 4.033519999999985100, 3.088681766341040300E-016 ) ) ;
#57 = EDGE_CURVE ( 'NONE', #186, #161, #42, .T. ) ;
#58 = CIRCLE ( 'NONE', #15, 5.041900000000015100 ) ;
#59 = ADVANCED_FACE ( 'NONE', ( #177 ), #211, .F. ) ;
#60 = PRESENTATION_STYLE_ASSIGNMENT (( #100 ) ) ;
#61 = DIRECTION ( 'NONE',  ( 1.000000000000000000, 0.0000000000000000000, 0.0000000000000000000 ) ) ;
#62 = DIRECTION ( 'NONE',  ( -0.0000000000000000000, -9.311423805311009000E-020, 1.000000000000000000 ) ) ;
#63 = VECTOR ( 'NONE', #115, 1000.000000000000000 ) ;
#64 = EDGE_LOOP ( 'NONE', ( #214, #89 ) ) ;
#65 =( NAMED_UNIT ( * ) SI_UNIT ( $, .STERADIAN. ) SOLID_ANGLE_UNIT ( ) );
#66 = DIRECTION ( 'NONE',  ( -0.0000000000000000000, -9.311423805311009000E-020, 1.000000000000000000 ) ) ;
#67 = AXIS2_PLACEMENT_3D ( 'NONE', #139, #21, #109 ) ;
#68 = SURFACE_STYLE_FILL_AREA ( #84 ) ;
#69 = ORIENTED_EDGE ( 'NONE', *, *, #57, .F. ) ;
#70 = AXIS2_PLACEMENT_3D ( 'NONE', #114, #66, #213 ) ;
#71 = DIRECTION ( 'NONE',  ( 0.0000000000000000000, 1.000000000000000000, 0.0000000000000000000 ) ) ;
#72 = CARTESIAN_POINT ( 'NONE',  ( 6.174546696621048900E-016, 5.041900000000007200, -1.008380000000025600 ) ) ;
#73 = ORIENTED_EDGE ( 'NONE', *, *, #57, .T. ) ;
#74 = FILL_AREA_STYLE ('',( #155 ) ) ;
#75 = COLOUR_RGB ( '',0.7921568627450980000, 0.8196078431372548800, 0.9333333333333333500 ) ;
#76 = PRODUCT_DEFINITION_CONTEXT ( 'detailed design', #197, 'design' ) ;
#77 =( NAMED_UNIT ( * ) PLANE_ANGLE_UNIT ( ) SI_UNIT ( $, .RADIAN. ) );
#78 = CIRCLE ( 'NONE', #179, 5.041900000000015100 ) ;
#79 = EDGE_LOOP ( 'NONE', ( #128, #73, #48, #150 ) ) ;
#80 = FILL_AREA_STYLE_COLOUR ( '', #75 ) ;
#81 = VERTEX_POINT ( 'NONE', #172 ) ;
#82 = EDGE_CURVE ( 'NONE', #87, #161, #212, .T. ) ;
#83 =( NAMED_UNIT ( * ) PLANE_ANGLE_UNIT ( ) SI_UNIT ( $, .RADIAN. ) );
#84 = FILL_AREA_STYLE ('',( #80 ) ) ;
#85 = ORIENTED_EDGE ( 'NONE', *, *, #192, .T. ) ;
#86 = AXIS2_PLACEMENT_3D ( 'NONE', #107, #136, #35 ) ;
#87 = VERTEX_POINT ( 'NONE', #72 ) ;
#88 = ADVANCED_FACE ( 'NONE', ( #10 ), #204, .T. ) ;
#89 = ORIENTED_EDGE ( 'NONE', *, *, #5, .T. ) ;
#90 = DIRECTION ( 'NONE',  ( 0.0000000000000000000, -1.000000000000000000, 0.0000000000000000000 ) ) ;
#91 = UNCERTAINTY_MEASURE_WITH_UNIT (LENGTH_MEASURE( 1.000000000000000100E-005 ), #101, 'distance_accuracy_value', 'NONE');
#92 = AXIS2_PLACEMENT_3D ( 'NONE', #196, #39, #46 ) ;
#93 = DIRECTION ( 'NONE',  ( -0.0000000000000000000, -9.311423805311009000E-020, 1.000000000000000000 ) ) ;
#94 = FACE_OUTER_BOUND ( 'NONE', #153, .T. ) ;
#95 = CARTESIAN_POINT ( 'NONE',  ( 0.0000000000000000000, 0.0000000000000000000, 0.0000000000000000000 ) ) ;
#96 = DIRECTION ( 'NONE',  ( 0.0000000000000000000, -1.000000000000000000, -9.311423805311009000E-020 ) ) ;
#97 = FACE_OUTER_BOUND ( 'NONE', #194, .T. ) ;
#98 = AXIS2_PLACEMENT_3D ( 'NONE', #129, #176, #111 ) ;
#99 = LINE ( 'NONE', #11, #134 ) ;
#100 = SURFACE_STYLE_USAGE ( .BOTH. , #195 ) ;
#101 =( LENGTH_UNIT ( ) NAMED_UNIT ( * ) SI_UNIT ( .MILLI., .METRE. ) );
#102 = AXIS2_PLACEMENT_3D ( 'NONE', #95, #130, #96 ) ;
#103 = LINE ( 'NONE', #147, #63 ) ;
#104 = CIRCLE ( 'NONE', #67, 4.033519999999985100 ) ;
#105 = DIRECTION ( 'NONE',  ( 0.0000000000000000000, 1.000000000000000000, 9.311423805310738200E-020 ) ) ;
#106 = DIRECTION ( 'NONE',  ( 0.0000000000000000000, 9.311423805311009000E-020, -1.000000000000000000 ) ) ;
#107 = CARTESIAN_POINT ( 'NONE',  ( 0.0000000000000000000, 5.041900000000000000, 3.089620711694720600E-016 ) ) ;
#108 = ORIENTED_EDGE ( 'NONE', *, *, #148, .F. ) ;
#109 = DIRECTION ( 'NONE',  ( 0.0000000000000000000, 1.000000000000000000, 9.311423805310738200E-020 ) ) ;
#110 = CARTESIAN_POINT ( 'NONE',  ( 0.0000000000000000000, 0.0000000000000000000, 0.0000000000000000000 ) ) ;
#111 = DIRECTION ( 'NONE',  ( 0.0000000000000000000, 1.000000000000000000, 9.311423805310738200E-020 ) ) ;
#112 = ORIENTED_EDGE ( 'NONE', *, *, #193, .T. ) ;
#113 = EDGE_CURVE ( 'NONE', #33, #169, #78, .T. ) ;
#114 = CARTESIAN_POINT ( 'NONE',  ( 0.0000000000000000000, -2.872505325366545100E-035, 3.084925984926320400E-016 ) ) ;
#115 = DIRECTION ( 'NONE',  ( 1.131426112287696600E-016, 0.9238795325112837400, 0.3826834323650970000 ) ) ;
#116 = CIRCLE ( 'NONE', #70, 4.033519999999985100 ) ;
#117 = EDGE_LOOP ( 'NONE', ( #199, #174, #28, #145 ) ) ;
#118 = PRESENTATION_LAYER_ASSIGNMENT (  '', '', ( #154 ) ) ;
#119 = EDGE_LOOP ( 'NONE', ( #120, #138, #54 ) ) ;
#120 = ORIENTED_EDGE ( 'NONE', *, *, #193, .F. ) ;
#121 = AXIS2_PLACEMENT_3D ( 'NONE', #141, #55, #71 ) ;
#122 =( LENGTH_UNIT ( ) NAMED_UNIT ( * ) SI_UNIT ( .MILLI., .METRE. ) );
#123 = SURFACE_SIDE_STYLE ('',( #165 ) ) ;
#124 = ADVANCED_FACE ( 'NONE', ( #159 ), #50, .T. ) ;
#125 = DIRECTION ( 'NONE',  ( 0.0000000000000000000, -1.000000000000000000, 0.0000000000000000000 ) ) ;
#126 = ORIENTED_EDGE ( 'NONE', *, *, #132, .F. ) ;
#127 = DIRECTION ( 'NONE',  ( -0.0000000000000000000, -9.311423805311009000E-020, 1.000000000000000000 ) ) ;
#128 = ORIENTED_EDGE ( 'NONE', *, *, #5, .F. ) ;
#129 = CARTESIAN_POINT ( 'NONE',  ( 0.0000000000000000000, -2.872505325366545100E-035, 3.084925984926320400E-016 ) ) ;
#130 = DIRECTION ( 'NONE',  ( -0.0000000000000000000, -9.311423805311009000E-020, 1.000000000000000000 ) ) ;
#131 = CLOSED_SHELL ( 'NONE', ( #88, #41, #124, #59, #45, #189, #178 ) ) ;
#132 = EDGE_CURVE ( 'NONE', #22, #186, #116, .T. ) ;
#133 = STYLED_ITEM ( 'NONE', ( #142 ), #16 ) ;
#134 = VECTOR ( 'NONE', #190, 1000.000000000000000 ) ;
#135 = PRODUCT_DEFINITION_SHAPE ( 'NONE', 'NONE',  #30 ) ;
#136 = DIRECTION ( 'NONE',  ( 0.0000000000000000000, 9.311423805311009000E-020, -1.000000000000000000 ) ) ;
#137 = CONICAL_SURFACE ( 'NONE', #98, 4.033519999999985100, 0.7853981633974466100 ) ;
#138 = ORIENTED_EDGE ( 'NONE', *, *, #14, .T. ) ;
#139 = CARTESIAN_POINT ( 'NONE',  ( 0.0000000000000000000, -2.872505325366545100E-035, 3.084925984926320400E-016 ) ) ;
#140 = CARTESIAN_POINT ( 'NONE',  ( 0.0000000000000000000, 1.231560788847432900E-017, -132.2634233601289400 ) ) ;
#141 = CARTESIAN_POINT ( 'NONE',  ( 0.0000000000000000000, 9.389453536799752500E-020, -1.008380000000025600 ) ) ;
#142 = PRESENTATION_STYLE_ASSIGNMENT (( #208 ) ) ;
#143 =( LENGTH_UNIT ( ) NAMED_UNIT ( * ) SI_UNIT ( .MILLI., .METRE. ) );
#144 =( NAMED_UNIT ( * ) SI_UNIT ( $, .STERADIAN. ) SOLID_ANGLE_UNIT ( ) );
#145 = ORIENTED_EDGE ( 'NONE', *, *, #171, .F. ) ;
#146 = DIRECTION ( 'NONE',  ( 0.0000000000000000000, 0.7071067811865463500, -0.7071067811865487900 ) ) ;
#147 = CARTESIAN_POINT ( 'NONE',  ( 0.0000000000000000000, 1.231560788847432900E-017, -132.2634233601289400 ) ) ;
#148 = EDGE_CURVE ( 'NONE', #169, #87, #99, .T. ) ;
#149 =( GEOMETRIC_REPRESENTATION_CONTEXT ( 3 ) GLOBAL_UNCERTAINTY_ASSIGNED_CONTEXT ( ( #47 ) ) GLOBAL_UNIT_ASSIGNED_CONTEXT ( ( #143, #83, #65 ) ) REPRESENTATION_CONTEXT ( 'NONE', 'WORKASPACE' ) );
#150 = ORIENTED_EDGE ( 'NONE', *, *, #201, .F. ) ;
#151 = PRODUCT ( '03-0281', '03-0281', '', ( #180 ) ) ;
#152 = CYLINDRICAL_SURFACE ( 'NONE', #102, 5.041900000000007200 ) ;
#153 = EDGE_LOOP ( 'NONE', ( #69, #126, #37, #202 ) ) ;
#154 = STYLED_ITEM ( 'NONE', ( #60 ), #7 ) ;
#155 = FILL_AREA_STYLE_COLOUR ( '', #210 ) ;
#156 = CARTESIAN_POINT ( 'NONE',  ( 6.174546696621057800E-016, 5.041900000000015100, -130.1749999999999800 ) ) ;
#157 = EDGE_CURVE ( 'NONE', #169, #33, #58, .T. ) ;
#158 = CARTESIAN_POINT ( 'NONE',  ( 0.0000000000000000000, 1.212114593856360500E-017, -130.1749999999999800 ) ) ;
#159 = FACE_OUTER_BOUND ( 'NONE', #27, .T. ) ;
#160 = VECTOR ( 'NONE', #146, 1000.000000000000000 ) ;
#161 = VERTEX_POINT ( 'NONE', #24 ) ;
#162 = ORIENTED_EDGE ( 'NONE', *, *, #157, .T. ) ;
#163 = DIRECTION ( 'NONE',  ( 0.0000000000000000000, -1.000000000000000000, 0.0000000000000000000 ) ) ;
#164 = DIRECTION ( 'NONE',  ( 0.0000000000000000000, -1.000000000000000000, 0.0000000000000000000 ) ) ;
#165 = SURFACE_STYLE_FILL_AREA ( #74 ) ;
#166 = ORIENTED_EDGE ( 'NONE', *, *, #14, .F. ) ;
#167 = APPLICATION_PROTOCOL_DEFINITION ( 'draft international standard', 'automotive_design', 1998, #197 ) ;
#168 = AXIS2_PLACEMENT_3D ( 'NONE', #20, #183, #90 ) ;
#169 = VERTEX_POINT ( 'NONE', #156 ) ;
#170 = VECTOR ( 'NONE', #209, 1000.000000000000000 ) ;
#171 = EDGE_CURVE ( 'NONE', #33, #161, #2, .T. ) ;
#172 = CARTESIAN_POINT ( 'NONE',  ( 0.0000000000000000000, 1.231560788847432900E-017, -132.2634233601289400 ) ) ;
#173 = LINE ( 'NONE', #51, #160 ) ;
#174 = ORIENTED_EDGE ( 'NONE', *, *, #148, .T. ) ;
#175 = CARTESIAN_POINT ( 'NONE',  ( 0.0000000000000000000, -5.041900000000015100, -130.1749999999999800 ) ) ;
#176 = DIRECTION ( 'NONE',  ( 0.0000000000000000000, 9.311423805311009000E-020, -1.000000000000000000 ) ) ;
#177 = FACE_OUTER_BOUND ( 'NONE', #64, .T. ) ;
#178 = ADVANCED_FACE ( 'NONE', ( #94 ), #137, .T. ) ;
#179 = AXIS2_PLACEMENT_3D ( 'NONE', #158, #127, #125 ) ;
#180 = PRODUCT_CONTEXT ( 'NONE', #3, 'mechanical' ) ;
#181 = CYLINDRICAL_SURFACE ( 'NONE', #4, 5.041900000000007200 ) ;
#182 = AXIS2_PLACEMENT_3D ( 'NONE', #36, #106, #105 ) ;
#183 = DIRECTION ( 'NONE',  ( -0.0000000000000000000, -9.311423805311009000E-020, 1.000000000000000000 ) ) ;
#184 = LINE ( 'NONE', #140, #29 ) ;
#185 = CARTESIAN_POINT ( 'NONE',  ( 0.0000000000000000000, 0.0000000000000000000, 0.0000000000000000000 ) ) ;
#186 = VERTEX_POINT ( 'NONE', #13 ) ;
#187 = PRODUCT_RELATED_PRODUCT_CATEGORY ( 'part', '', ( #151 ) ) ;
#188 = CARTESIAN_POINT ( 'NONE',  ( 4.939637357296814100E-016, -4.033519999999985100, 3.081170203511600600E-016 ) ) ;
#189 = ADVANCED_FACE ( 'NONE', ( #97 ), #152, .T. ) ;
#190 = DIRECTION ( 'NONE',  ( -0.0000000000000000000, -9.311423805311009000E-020, 1.000000000000000000 ) ) ;
#191 = CARTESIAN_POINT ( 'NONE',  ( 0.0000000000000000000, -5.041900000000007200, -4.694726768399764400E-019 ) ) ;
#192 = EDGE_CURVE ( 'NONE', #161, #87, #26, .T. ) ;
#193 = EDGE_CURVE ( 'NONE', #81, #169, #103, .T. ) ;
#194 = EDGE_LOOP ( 'NONE', ( #108, #162, #31, #85 ) ) ;
#195 = SURFACE_SIDE_STYLE ('',( #68 ) ) ;
#196 = CARTESIAN_POINT ( 'NONE',  ( 0.0000000000000000000, 9.389453536799752500E-020, -1.008380000000025600 ) ) ;
#197 = APPLICATION_CONTEXT ( 'automotive_design' ) ;
#198 = FACE_OUTER_BOUND ( 'NONE', #117, .T. ) ;
#199 = ORIENTED_EDGE ( 'NONE', *, *, #113, .T. ) ;
#200 =( GEOMETRIC_REPRESENTATION_CONTEXT ( 3 ) GLOBAL_UNCERTAINTY_ASSIGNED_CONTEXT ( ( #40 ) ) GLOBAL_UNIT_ASSIGNED_CONTEXT ( ( #122, #6, #23 ) ) REPRESENTATION_CONTEXT ( 'NONE', 'WORKASPACE' ) );
#201 = EDGE_CURVE ( 'NONE', #22, #87, #173, .T. ) ;
#202 = ORIENTED_EDGE ( 'NONE', *, *, #192, .F. ) ;
#203 = AXIS2_PLACEMENT_3D ( 'NONE', #110, #43, #61 ) ;
#204 = CONICAL_SURFACE ( 'NONE', #182, 4.033519999999985100, 0.7853981633974466100 ) ;
#205 = VECTOR ( 'NONE', #1, 1000.000000000000000 ) ;
#206 = ORIENTED_EDGE ( 'NONE', *, *, #113, .F. ) ;
#207 = DIRECTION ( 'NONE',  ( 0.0000000000000000000, -0.9238795325112837400, 0.3826834323650970000 ) ) ;
#208 = SURFACE_STYLE_USAGE ( .BOTH. , #123 ) ;
#209 = DIRECTION ( 'NONE',  ( 8.659560562354919300E-017, -0.7071067811865463500, -0.7071067811865487900 ) ) ;
#210 = COLOUR_RGB ( '',0.7921568627450980000, 0.8196078431372548800, 0.9333333333333333500 ) ;
#211 = PLANE ( 'NONE',  #86 ) ;
#212 = CIRCLE ( 'NONE', #121, 5.041900000000007200 ) ;
#213 = DIRECTION ( 'NONE',  ( 0.0000000000000000000, 1.000000000000000000, 9.311423805310738200E-020 ) ) ;
#214 = ORIENTED_EDGE ( 'NONE', *, *, #132, .T. ) ;
ENDSEC;
END-ISO-10303-21;
