ISO-10303-21;
HEADER;
FILE_DESCRIPTION (( 'STEP AP214' ),
    '1' );
FILE_NAME ('03-0282.STEP',
    '2020-07-23T06:17:12',
    ( '' ),
    ( '' ),
    'SwSTEP 2.0',
    'SolidWorks 2014',
    '' );
FILE_SCHEMA (( 'AUTOMOTIVE_DESIGN' ));
ENDSEC;

DATA;
#1 = ADVANCED_FACE ( 'NONE', ( #128 ), #181, .T. ) ;
#2 = DIRECTION ( 'NONE',  ( -0.0000000000000000000, -1.372024296477244600E-021, 1.000000000000000000 ) ) ;
#3 = CARTESIAN_POINT ( 'NONE',  ( 0.0000000000000000000, 1.407916452073134000E-021, -1.026160000000032600 ) ) ;
#4 = DIRECTION ( 'NONE',  ( -0.0000000000000000000, -1.372024296477244600E-021, 1.000000000000000000 ) ) ;
#5 = DIRECTION ( 'NONE',  ( 0.0000000000000000000, 1.000000000000000000, 1.372024296478921900E-021 ) ) ;
#6 = DIRECTION ( 'NONE',  ( 0.0000000000000000000, 1.000000000000000000, 0.0000000000000000000 ) ) ;
#7 = ORIENTED_EDGE ( 'NONE', *, *, #103, .F. ) ;
#8 = AXIS2_PLACEMENT_3D ( 'NONE', #125, #144, #5 ) ;
#9 = VECTOR ( 'NONE', #40, 999.9999999999998900 ) ;
#10 = ORIENTED_EDGE ( 'NONE', *, *, #108, .F. ) ;
#11 = STYLED_ITEM ( 'NONE', ( #97 ), #31 ) ;
#12 = FILL_AREA_STYLE_COLOUR ( '', #166 ) ;
#13 = DIRECTION ( 'NONE',  ( 1.000000000000000000, 0.0000000000000000000, 0.0000000000000000000 ) ) ;
#14 = CARTESIAN_POINT ( 'NONE',  ( 5.026734237652166500E-016, -4.104639999999978500, 3.141617383963234300E-016 ) ) ;
#15 = APPLICATION_CONTEXT ( 'automotive_design' ) ;
#16 = CARTESIAN_POINT ( 'NONE',  ( 0.0000000000000000000, 1.858753303809249800E-019, -135.4752469458239000 ) ) ;
#17 = VECTOR ( 'NONE', #137, 1000.000000000000000 ) ;
#18 = PRODUCT_CONTEXT ( 'NONE', #15, 'mechanical' ) ;
#19 = AXIS2_PLACEMENT_3D ( 'NONE', #52, #74, #23 ) ;
#20 = ORIENTED_EDGE ( 'NONE', *, *, #108, .T. ) ;
#21 = ADVANCED_FACE ( 'NONE', ( #173 ), #171, .T. ) ;
#22 = CARTESIAN_POINT ( 'NONE',  ( 0.0000000000000000000, 0.0000000000000000000, 0.0000000000000000000 ) ) ;
#23 = DIRECTION ( 'NONE',  ( 0.0000000000000000000, 1.000000000000000000, 1.372024296478921900E-021 ) ) ;
#24 = CARTESIAN_POINT ( 'NONE',  ( 0.0000000000000000000, 5.130799999999998900, 3.141744096443921300E-016 ) ) ;
#25 = CIRCLE ( 'NONE', #8, 4.104639999999978500 ) ;
#26 = ORIENTED_EDGE ( 'NONE', *, *, #81, .T. ) ;
#27 = CIRCLE ( 'NONE', #133, 5.130800000000007800 ) ;
#28 = EDGE_LOOP ( 'NONE', ( #113, #213, #7, #95 ) ) ;
#29 = AXIS2_PLACEMENT_3D ( 'NONE', #167, #4, #124 ) ;
#30 = DIRECTION ( 'NONE',  ( 0.0000000000000000000, -0.9238795325112865200, 0.3826834323650906100 ) ) ;
#31 = MANIFOLD_SOLID_BREP ( '¸ðµû±â1', #191 ) ;
#32 = ORIENTED_EDGE ( 'NONE', *, *, #131, .F. ) ;
#33 = CARTESIAN_POINT ( 'NONE',  ( 0.0000000000000000000, -1.186148966096319600E-018, 864.5247530541761300 ) ) ;
#34 = EDGE_CURVE ( 'NONE', #77, #179, #45, .T. ) ;
#35 = CARTESIAN_POINT ( 'NONE',  ( 0.0000000000000000000, -5.130800000000016700, -133.3499999999999900 ) ) ;
#36 = SURFACE_STYLE_FILL_AREA ( #82 ) ;
#37 = DIRECTION ( 'NONE',  ( -0.0000000000000000000, -1.372024296477244600E-021, 1.000000000000000000 ) ) ;
#38 = DIRECTION ( 'NONE',  ( -0.0000000000000000000, -1.372024296477244600E-021, 1.000000000000000000 ) ) ;
#39 = CIRCLE ( 'NONE', #180, 5.130800000000015800 ) ;
#40 = DIRECTION ( 'NONE',  ( 1.131426112287700300E-016, 0.9238795325112865200, 0.3826834323650906100 ) ) ;
#41 = ORIENTED_EDGE ( 'NONE', *, *, #79, .T. ) ;
#42 = AXIS2_PLACEMENT_3D ( 'NONE', #73, #92, #175 ) ;
#43 = UNCERTAINTY_MEASURE_WITH_UNIT (LENGTH_MEASURE( 1.000000000000000100E-005 ), #67, 'distance_accuracy_value', 'NONE');
#44 = CONICAL_SURFACE ( 'NONE', #42, 2414.213562373088700, 1.178097245096171500 ) ;
#45 = LINE ( 'NONE', #14, #127 ) ;
#46 = ORIENTED_EDGE ( 'NONE', *, *, #196, .T. ) ;
#47 =( NAMED_UNIT ( * ) SI_UNIT ( $, .STERADIAN. ) SOLID_ANGLE_UNIT ( ) );
#48 = FILL_AREA_STYLE_COLOUR ( '', #195 ) ;
#49 = SURFACE_SIDE_STYLE ('',( #50 ) ) ;
#50 = SURFACE_STYLE_FILL_AREA ( #201 ) ;
#51 = DIRECTION ( 'NONE',  ( 0.0000000000000000000, -1.000000000000000000, 0.0000000000000000000 ) ) ;
#52 = CARTESIAN_POINT ( 'NONE',  ( 0.0000000000000000000, -4.310452648856023900E-037, 3.141673700621317400E-016 ) ) ;
#53 = CARTESIAN_POINT ( 'NONE',  ( 0.0000000000000000000, 4.104639999999978500, 3.141730017279400400E-016 ) ) ;
#54 = DIRECTION ( 'NONE',  ( 0.0000000000000000000, 1.372024296477244600E-021, -1.000000000000000000 ) ) ;
#55 = FACE_OUTER_BOUND ( 'NONE', #130, .T. ) ;
#56 = EDGE_LOOP ( 'NONE', ( #202, #105, #192 ) ) ;
#57 = PRESENTATION_LAYER_ASSIGNMENT (  '', '', ( #132 ) ) ;
#58 = PRODUCT_DEFINITION_CONTEXT ( 'detailed design', #169, 'design' ) ;
#59 = LINE ( 'NONE', #16, #186 ) ;
#60 = VERTEX_POINT ( 'NONE', #63 ) ;
#61 = SHAPE_DEFINITION_REPRESENTATION ( #78, #177 ) ;
#62 = ADVANCED_FACE ( 'NONE', ( #178 ), #208, .T. ) ;
#63 = CARTESIAN_POINT ( 'NONE',  ( 0.0000000000000000000, 1.858753303809249800E-019, -135.4752469458239000 ) ) ;
#64 = CARTESIAN_POINT ( 'NONE',  ( 0.0000000000000000000, 4.104639999999978500, 3.141730017279400400E-016 ) ) ;
#65 = VECTOR ( 'NONE', #139, 1000.000000000000100 ) ;
#66 = ADVANCED_FACE ( 'NONE', ( #211 ), #119, .T. ) ;
#67 =( LENGTH_UNIT ( ) NAMED_UNIT ( * ) SI_UNIT ( .MILLI., .METRE. ) );
#68 = ORIENTED_EDGE ( 'NONE', *, *, #140, .T. ) ;
#69 = CARTESIAN_POINT ( 'NONE',  ( 0.0000000000000000000, 0.0000000000000000000, 0.0000000000000000000 ) ) ;
#70 = CARTESIAN_POINT ( 'NONE',  ( 0.0000000000000000000, 1.407916452073134000E-021, -1.026160000000032600 ) ) ;
#71 =( LENGTH_UNIT ( ) NAMED_UNIT ( * ) SI_UNIT ( .MILLI., .METRE. ) );
#72 = MECHANICAL_DESIGN_GEOMETRIC_PRESENTATION_REPRESENTATION (  '', ( #132 ), #151 ) ;
#73 = CARTESIAN_POINT ( 'NONE',  ( 0.0000000000000000000, -1.186148966096319600E-018, 864.5247530541761300 ) ) ;
#74 = DIRECTION ( 'NONE',  ( 0.0000000000000000000, 1.372024296477244600E-021, -1.000000000000000000 ) ) ;
#75 = EDGE_CURVE ( 'NONE', #194, #80, #39, .T. ) ;
#76 = ORIENTED_EDGE ( 'NONE', *, *, #75, .F. ) ;
#77 = VERTEX_POINT ( 'NONE', #142 ) ;
#78 = PRODUCT_DEFINITION_SHAPE ( 'NONE', 'NONE',  #85 ) ;
#79 = EDGE_CURVE ( 'NONE', #194, #179, #176, .T. ) ;
#80 = VERTEX_POINT ( 'NONE', #83 ) ;
#81 = EDGE_CURVE ( 'NONE', #60, #80, #193, .T. ) ;
#82 = FILL_AREA_STYLE ('',( #12 ) ) ;
#83 = CARTESIAN_POINT ( 'NONE',  ( 6.283417797065261400E-016, 5.130800000000016700, -133.3499999999999900 ) ) ;
#84 = APPLICATION_PROTOCOL_DEFINITION ( 'draft international standard', 'automotive_design', 1998, #15 ) ;
#85 = PRODUCT_DEFINITION ( 'UNKNOWN', '', #136, #58 ) ;
#86 = DIRECTION ( 'NONE',  ( 0.0000000000000000000, -1.000000000000000000, 0.0000000000000000000 ) ) ;
#87 = ORIENTED_EDGE ( 'NONE', *, *, #140, .F. ) ;
#88 = SURFACE_STYLE_USAGE ( .BOTH. , #118 ) ;
#89 = DIRECTION ( 'NONE',  ( 0.0000000000000000000, -1.000000000000000000, -1.372024296477244600E-021 ) ) ;
#90 = CARTESIAN_POINT ( 'NONE',  ( 0.0000000000000000000, 1.829594399352405500E-019, -133.3499999999999900 ) ) ;
#91 = DIRECTION ( 'NONE',  ( 0.0000000000000000000, -1.000000000000000000, -1.372024296477244600E-021 ) ) ;
#92 = DIRECTION ( 'NONE',  ( -0.0000000000000000000, -1.372024296477244600E-021, 1.000000000000000000 ) ) ;
#93 = DIRECTION ( 'NONE',  ( 0.0000000000000000000, 1.000000000000000000, 1.372024296477244600E-021 ) ) ;
#94 = EDGE_CURVE ( 'NONE', #60, #194, #59, .T. ) ;
#95 = ORIENTED_EDGE ( 'NONE', *, *, #98, .F. ) ;
#96 = FACE_OUTER_BOUND ( 'NONE', #147, .T. ) ;
#97 = PRESENTATION_STYLE_ASSIGNMENT (( #143 ) ) ;
#98 = EDGE_CURVE ( 'NONE', #168, #206, #189, .T. ) ;
#99 = EDGE_LOOP ( 'NONE', ( #32, #46, #41, #68 ) ) ;
#100 = AXIS2_PLACEMENT_3D ( 'NONE', #183, #134, #13 ) ;
#101 = PRESENTATION_STYLE_ASSIGNMENT (( #88 ) ) ;
#102 = DIRECTION ( 'NONE',  ( 0.0000000000000000000, -1.000000000000000000, 0.0000000000000000000 ) ) ;
#103 = EDGE_CURVE ( 'NONE', #206, #179, #149, .T. ) ;
#104 =( NAMED_UNIT ( * ) SI_UNIT ( $, .STERADIAN. ) SOLID_ANGLE_UNIT ( ) );
#105 = ORIENTED_EDGE ( 'NONE', *, *, #94, .T. ) ;
#106 = CARTESIAN_POINT ( 'NONE',  ( 0.0000000000000000000, -4.310452648856023900E-037, 3.141673700621317400E-016 ) ) ;
#107 = CARTESIAN_POINT ( 'NONE',  ( 0.0000000000000000000, -5.130800000000007800, -1.026160000000032600 ) ) ;
#108 = EDGE_CURVE ( 'NONE', #168, #77, #25, .T. ) ;
#109 = VECTOR ( 'NONE', #37, 1000.000000000000000 ) ;
#110 = ORIENTED_EDGE ( 'NONE', *, *, #34, .F. ) ;
#111 = FACE_OUTER_BOUND ( 'NONE', #28, .T. ) ;
#112 = PRESENTATION_LAYER_ASSIGNMENT (  '', '', ( #11 ) ) ;
#113 = ORIENTED_EDGE ( 'NONE', *, *, #159, .F. ) ;
#114 = ORIENTED_EDGE ( 'NONE', *, *, #75, .T. ) ;
#115 =( GEOMETRIC_REPRESENTATION_CONTEXT ( 3 ) GLOBAL_UNCERTAINTY_ASSIGNED_CONTEXT ( ( #43 ) ) GLOBAL_UNIT_ASSIGNED_CONTEXT ( ( #67, #121, #138 ) ) REPRESENTATION_CONTEXT ( 'NONE', 'WORKASPACE' ) );
#116 = MECHANICAL_DESIGN_GEOMETRIC_PRESENTATION_REPRESENTATION (  '', ( #11 ), #129 ) ;
#117 =( LENGTH_UNIT ( ) NAMED_UNIT ( * ) SI_UNIT ( .MILLI., .METRE. ) );
#118 = SURFACE_SIDE_STYLE ('',( #36 ) ) ;
#119 = CYLINDRICAL_SURFACE ( 'NONE', #170, 5.130800000000007800 ) ;
#120 = CARTESIAN_POINT ( 'NONE',  ( 0.0000000000000000000, 1.858753303809249800E-019, -135.4752469458239000 ) ) ;
#121 =( NAMED_UNIT ( * ) PLANE_ANGLE_UNIT ( ) SI_UNIT ( $, .RADIAN. ) );
#122 = AXIS2_PLACEMENT_3D ( 'NONE', #106, #203, #123 ) ;
#123 = DIRECTION ( 'NONE',  ( 0.0000000000000000000, 1.000000000000000000, 1.372024296478921900E-021 ) ) ;
#124 = DIRECTION ( 'NONE',  ( 0.0000000000000000000, 1.000000000000000000, 1.372024296478921900E-021 ) ) ;
#125 = CARTESIAN_POINT ( 'NONE',  ( 0.0000000000000000000, -4.310452648856023900E-037, 3.141673700621317400E-016 ) ) ;
#126 = PRODUCT_RELATED_PRODUCT_CATEGORY ( 'part', '', ( #164 ) ) ;
#127 = VECTOR ( 'NONE', #153, 1000.000000000000100 ) ;
#128 = FACE_OUTER_BOUND ( 'NONE', #200, .T. ) ;
#129 =( GEOMETRIC_REPRESENTATION_CONTEXT ( 3 ) GLOBAL_UNCERTAINTY_ASSIGNED_CONTEXT ( ( #155 ) ) GLOBAL_UNIT_ASSIGNED_CONTEXT ( ( #71, #214, #47 ) ) REPRESENTATION_CONTEXT ( 'NONE', 'WORKASPACE' ) );
#130 = EDGE_LOOP ( 'NONE', ( #20, #160 ) ) ;
#131 = EDGE_CURVE ( 'NONE', #80, #206, #154, .T. ) ;
#132 = STYLED_ITEM ( 'NONE', ( #101 ), #177 ) ;
#133 = AXIS2_PLACEMENT_3D ( 'NONE', #3, #174, #184 ) ;
#134 = DIRECTION ( 'NONE',  ( 0.0000000000000000000, 0.0000000000000000000, 1.000000000000000000 ) ) ;
#135 = ADVANCED_FACE ( 'NONE', ( #111 ), #199, .T. ) ;
#136 = PRODUCT_DEFINITION_FORMATION_WITH_SPECIFIED_SOURCE ( 'ANY', '', #164, .NOT_KNOWN. ) ;
#137 = DIRECTION ( 'NONE',  ( -0.0000000000000000000, -1.372024296477244600E-021, 1.000000000000000000 ) ) ;
#138 =( NAMED_UNIT ( * ) SI_UNIT ( $, .STERADIAN. ) SOLID_ANGLE_UNIT ( ) );
#139 = DIRECTION ( 'NONE',  ( 0.0000000000000000000, 0.7071067811865460200, -0.7071067811865489100 ) ) ;
#140 = EDGE_CURVE ( 'NONE', #179, #206, #27, .T. ) ;
#141 = UNCERTAINTY_MEASURE_WITH_UNIT (LENGTH_MEASURE( 1.000000000000000100E-005 ), #117, 'distance_accuracy_value', 'NONE');
#142 = CARTESIAN_POINT ( 'NONE',  ( 5.655076017358707000E-016, -4.104639999999978500, 3.141617383963234300E-016 ) ) ;
#143 = SURFACE_STYLE_USAGE ( .BOTH. , #49 ) ;
#144 = DIRECTION ( 'NONE',  ( -0.0000000000000000000, -1.372024296477244600E-021, 1.000000000000000000 ) ) ;
#145 = CARTESIAN_POINT ( 'NONE',  ( 0.0000000000000000000, 1.829594399352405500E-019, -133.3499999999999900 ) ) ;
#146 = AXIS2_PLACEMENT_3D ( 'NONE', #145, #38, #51 ) ;
#147 = EDGE_LOOP ( 'NONE', ( #182, #26, #76 ) ) ;
#148 = AXIS2_PLACEMENT_3D ( 'NONE', #69, #172, #89 ) ;
#149 = CIRCLE ( 'NONE', #190, 5.130800000000007800 ) ;
#150 = ORIENTED_EDGE ( 'NONE', *, *, #131, .T. ) ;
#151 =( GEOMETRIC_REPRESENTATION_CONTEXT ( 3 ) GLOBAL_UNCERTAINTY_ASSIGNED_CONTEXT ( ( #141 ) ) GLOBAL_UNIT_ASSIGNED_CONTEXT ( ( #117, #185, #104 ) ) REPRESENTATION_CONTEXT ( 'NONE', 'WORKASPACE' ) );
#152 = DIRECTION ( 'NONE',  ( -0.0000000000000000000, -1.372024296477244600E-021, 1.000000000000000000 ) ) ;
#153 = DIRECTION ( 'NONE',  ( 8.659560562354913100E-017, -0.7071067811865460200, -0.7071067811865489100 ) ) ;
#154 = LINE ( 'NONE', #204, #109 ) ;
#155 = UNCERTAINTY_MEASURE_WITH_UNIT (LENGTH_MEASURE( 1.000000000000000100E-005 ), #71, 'distance_accuracy_value', 'NONE');
#156 = ORIENTED_EDGE ( 'NONE', *, *, #98, .T. ) ;
#157 = PLANE ( 'NONE',  #165 ) ;
#158 = CIRCLE ( 'NONE', #29, 4.104639999999978500 ) ;
#159 = EDGE_CURVE ( 'NONE', #77, #168, #158, .T. ) ;
#160 = ORIENTED_EDGE ( 'NONE', *, *, #159, .T. ) ;
#161 = ORIENTED_EDGE ( 'NONE', *, *, #79, .F. ) ;
#162 = CIRCLE ( 'NONE', #146, 5.130800000000015800 ) ;
#163 = EDGE_LOOP ( 'NONE', ( #114, #150, #209, #161 ) ) ;
#164 = PRODUCT ( '03-0282', '03-0282', '', ( #18 ) ) ;
#165 = AXIS2_PLACEMENT_3D ( 'NONE', #24, #188, #93 ) ;
#166 = COLOUR_RGB ( '',0.7921568627450980000, 0.8196078431372548800, 0.9333333333333333500 ) ;
#167 = CARTESIAN_POINT ( 'NONE',  ( 0.0000000000000000000, -4.310452648856023900E-037, 3.141673700621317400E-016 ) ) ;
#168 = VERTEX_POINT ( 'NONE', #53 ) ;
#169 = APPLICATION_CONTEXT ( 'automotive_design' ) ;
#170 = AXIS2_PLACEMENT_3D ( 'NONE', #22, #187, #91 ) ;
#171 = CONICAL_SURFACE ( 'NONE', #207, 2414.213562373088700, 1.178097245096171500 ) ;
#172 = DIRECTION ( 'NONE',  ( -0.0000000000000000000, -1.372024296477244600E-021, 1.000000000000000000 ) ) ;
#173 = FACE_OUTER_BOUND ( 'NONE', #56, .T. ) ;
#174 = DIRECTION ( 'NONE',  ( 0.0000000000000000000, 1.372024296477244600E-021, -1.000000000000000000 ) ) ;
#175 = DIRECTION ( 'NONE',  ( 0.0000000000000000000, -1.000000000000000000, 0.0000000000000000000 ) ) ;
#176 = LINE ( 'NONE', #198, #17 ) ;
#177 = ADVANCED_BREP_SHAPE_REPRESENTATION ( '03-0282', ( #31, #100 ), #115 ) ;
#178 = FACE_OUTER_BOUND ( 'NONE', #99, .T. ) ;
#179 = VERTEX_POINT ( 'NONE', #107 ) ;
#180 = AXIS2_PLACEMENT_3D ( 'NONE', #90, #2, #102 ) ;
#181 = CONICAL_SURFACE ( 'NONE', #122, 4.104639999999978500, 0.7853981633974461700 ) ;
#182 = ORIENTED_EDGE ( 'NONE', *, *, #94, .F. ) ;
#183 = CARTESIAN_POINT ( 'NONE',  ( 0.0000000000000000000, 0.0000000000000000000, 0.0000000000000000000 ) ) ;
#184 = DIRECTION ( 'NONE',  ( 0.0000000000000000000, 1.000000000000000000, 0.0000000000000000000 ) ) ;
#185 =( NAMED_UNIT ( * ) PLANE_ANGLE_UNIT ( ) SI_UNIT ( $, .RADIAN. ) );
#186 = VECTOR ( 'NONE', #30, 999.9999999999998900 ) ;
#187 = DIRECTION ( 'NONE',  ( -0.0000000000000000000, -1.372024296477244600E-021, 1.000000000000000000 ) ) ;
#188 = DIRECTION ( 'NONE',  ( 0.0000000000000000000, 1.372024296477244600E-021, -1.000000000000000000 ) ) ;
#189 = LINE ( 'NONE', #64, #65 ) ;
#190 = AXIS2_PLACEMENT_3D ( 'NONE', #70, #54, #6 ) ;
#191 = CLOSED_SHELL ( 'NONE', ( #135, #66, #210, #197, #21, #62, #1 ) ) ;
#192 = ORIENTED_EDGE ( 'NONE', *, *, #196, .F. ) ;
#193 = LINE ( 'NONE', #120, #9 ) ;
#194 = VERTEX_POINT ( 'NONE', #35 ) ;
#195 = COLOUR_RGB ( '',0.7921568627450980000, 0.8196078431372548800, 0.9333333333333333500 ) ;
#196 = EDGE_CURVE ( 'NONE', #80, #194, #162, .T. ) ;
#197 = ADVANCED_FACE ( 'NONE', ( #55 ), #157, .F. ) ;
#198 = CARTESIAN_POINT ( 'NONE',  ( 0.0000000000000000000, -5.130800000000007800, -7.039582260365456800E-021 ) ) ;
#199 = CONICAL_SURFACE ( 'NONE', #19, 4.104639999999978500, 0.7853981633974461700 ) ;
#200 = EDGE_LOOP ( 'NONE', ( #110, #10, #156, #87 ) ) ;
#201 = FILL_AREA_STYLE ('',( #48 ) ) ;
#202 = ORIENTED_EDGE ( 'NONE', *, *, #81, .F. ) ;
#203 = DIRECTION ( 'NONE',  ( 0.0000000000000000000, 1.372024296477244600E-021, -1.000000000000000000 ) ) ;
#204 = CARTESIAN_POINT ( 'NONE',  ( 6.283417797065249500E-016, 5.130800000000007800, 7.039582260365456800E-021 ) ) ;
#205 = CARTESIAN_POINT ( 'NONE',  ( 6.283417797065249500E-016, 5.130800000000007800, -1.026160000000032600 ) ) ;
#206 = VERTEX_POINT ( 'NONE', #205 ) ;
#207 = AXIS2_PLACEMENT_3D ( 'NONE', #33, #152, #86 ) ;
#208 = CYLINDRICAL_SURFACE ( 'NONE', #148, 5.130800000000007800 ) ;
#209 = ORIENTED_EDGE ( 'NONE', *, *, #103, .T. ) ;
#210 = ADVANCED_FACE ( 'NONE', ( #96 ), #44, .T. ) ;
#211 = FACE_OUTER_BOUND ( 'NONE', #163, .T. ) ;
#212 = APPLICATION_PROTOCOL_DEFINITION ( 'draft international standard', 'automotive_design', 1998, #169 ) ;
#213 = ORIENTED_EDGE ( 'NONE', *, *, #34, .T. ) ;
#214 =( NAMED_UNIT ( * ) PLANE_ANGLE_UNIT ( ) SI_UNIT ( $, .RADIAN. ) );
ENDSEC;
END-ISO-10303-21;
