ISO-10303-21;
HEADER;
FILE_DESCRIPTION (( 'STEP AP214' ),
    '1' );
FILE_NAME ('03-0284.STEP',
    '2020-07-23T06:18:33',
    ( '' ),
    ( '' ),
    'SwSTEP 2.0',
    'SolidWorks 2014',
    '' );
FILE_SCHEMA (( 'AUTOMOTIVE_DESIGN' ));
ENDSEC;

DATA;
#1 = VERTEX_POINT ( 'NONE', #70 ) ;
#2 = FACE_OUTER_BOUND ( 'NONE', #198, .T. ) ;
#3 = PRESENTATION_STYLE_ASSIGNMENT (( #133 ) ) ;
#4 = AXIS2_PLACEMENT_3D ( 'NONE', #66, #86, #136 ) ;
#5 = DIRECTION ( 'NONE',  ( 0.0000000000000000000, -0.9238795325112855200, 0.3826834323650925000 ) ) ;
#6 = FILL_AREA_STYLE_COLOUR ( '', #199 ) ;
#7 = ORIENTED_EDGE ( 'NONE', *, *, #172, .F. ) ;
#8 = CARTESIAN_POINT ( 'NONE',  ( 0.0000000000000000000, -8.672801893822151500E-016, 900.3756032087924300 ) ) ;
#9 = DIRECTION ( 'NONE',  ( -0.0000000000000000000, -9.632426581655137700E-019, 1.000000000000000000 ) ) ;
#10 = DIRECTION ( 'NONE',  ( 8.659560562354951300E-017, -0.7071067811865489100, -0.7071067811865462400 ) ) ;
#11 = AXIS2_PLACEMENT_3D ( 'NONE', #8, #119, #152 ) ;
#12 = CIRCLE ( 'NONE', #212, 2.895600000000006200 ) ;
#13 = ORIENTED_EDGE ( 'NONE', *, *, #197, .F. ) ;
#14 = ORIENTED_EDGE ( 'NONE', *, *, #114, .T. ) ;
#15 = STYLED_ITEM ( 'NONE', ( #3 ), #185 ) ;
#16 = ORIENTED_EDGE ( 'NONE', *, *, #45, .F. ) ;
#17 = ORIENTED_EDGE ( 'NONE', *, *, #45, .T. ) ;
#18 = CARTESIAN_POINT ( 'NONE',  ( 0.0000000000000000000, 0.0000000000000000000, 0.0000000000000000000 ) ) ;
#19 = DIRECTION ( 'NONE',  ( 0.0000000000000000000, 0.7071067811865489100, -0.7071067811865462400 ) ) ;
#20 = SURFACE_SIDE_STYLE ('',( #129 ) ) ;
#21 = DIRECTION ( 'NONE',  ( -0.0000000000000000000, -9.632426581655137700E-019, 1.000000000000000000 ) ) ;
#22 = AXIS2_PLACEMENT_3D ( 'NONE', #150, #72, #74 ) ;
#23 =( NAMED_UNIT ( * ) PLANE_ANGLE_UNIT ( ) SI_UNIT ( $, .RADIAN. ) );
#24 = VERTEX_POINT ( 'NONE', #167 ) ;
#25 =( LENGTH_UNIT ( ) NAMED_UNIT ( * ) SI_UNIT ( .MILLI., .METRE. ) );
#26 = ORIENTED_EDGE ( 'NONE', *, *, #60, .F. ) ;
#27 = FILL_AREA_STYLE ('',( #96 ) ) ;
#28 = ORIENTED_EDGE ( 'NONE', *, *, #58, .F. ) ;
#29 = AXIS2_PLACEMENT_3D ( 'NONE', #18, #33, #153 ) ;
#30 = EDGE_LOOP ( 'NONE', ( #169, #106, #14, #7 ) ) ;
#31 = LINE ( 'NONE', #56, #211 ) ;
#32 = SHAPE_DEFINITION_REPRESENTATION ( #103, #99 ) ;
#33 = DIRECTION ( 'NONE',  ( -0.0000000000000000000, -9.632426581655137700E-019, 1.000000000000000000 ) ) ;
#34 = DIRECTION ( 'NONE',  ( 0.0000000000000000000, 9.632426581655137700E-019, -1.000000000000000000 ) ) ;
#35 = DIRECTION ( 'NONE',  ( 0.0000000000000000000, 1.000000000000000000, 9.632426581655170500E-019 ) ) ;
#36 = ORIENTED_EDGE ( 'NONE', *, *, #98, .T. ) ;
#37 = CARTESIAN_POINT ( 'NONE',  ( 0.0000000000000000000, -1.694438049129589500E-034, 1.759097808600617900E-016 ) ) ;
#38 = ADVANCED_FACE ( 'NONE', ( #159 ), #155, .T. ) ;
#39 = AXIS2_PLACEMENT_3D ( 'NONE', #151, #71, #118 ) ;
#40 =( NAMED_UNIT ( * ) SI_UNIT ( $, .STERADIAN. ) SOLID_ANGLE_UNIT ( ) );
#41 = APPLICATION_CONTEXT ( 'automotive_design' ) ;
#42 = UNCERTAINTY_MEASURE_WITH_UNIT (LENGTH_MEASURE( 1.000000000000000100E-005 ), #25, 'distance_accuracy_value', 'NONE');
#43 = ORIENTED_EDGE ( 'NONE', *, *, #172, .T. ) ;
#44 = FACE_OUTER_BOUND ( 'NONE', #182, .T. ) ;
#45 = EDGE_CURVE ( 'NONE', #112, #121, #97, .T. ) ;
#46 = CIRCLE ( 'NONE', #163, 2.316479999999995400 ) ;
#47 = PRESENTATION_STYLE_ASSIGNMENT (( #108 ) ) ;
#48 =( GEOMETRIC_REPRESENTATION_CONTEXT ( 3 ) GLOBAL_UNCERTAINTY_ASSIGNED_CONTEXT ( ( #73 ) ) GLOBAL_UNIT_ASSIGNED_CONTEXT ( ( #94, #178, #40 ) ) REPRESENTATION_CONTEXT ( 'NONE', 'WORKASPACE' ) );
#49 = CIRCLE ( 'NONE', #186, 2.895600000000011900 ) ;
#50 = LINE ( 'NONE', #75, #213 ) ;
#51 = DIRECTION ( 'NONE',  ( 0.0000000000000000000, 1.000000000000000000, 0.0000000000000000000 ) ) ;
#52 = DIRECTION ( 'NONE',  ( 0.0000000000000000000, -1.000000000000000000, -9.632426581655135800E-019 ) ) ;
#53 = ORIENTED_EDGE ( 'NONE', *, *, #92, .T. ) ;
#54 = FILL_AREA_STYLE ('',( #6 ) ) ;
#55 = CARTESIAN_POINT ( 'NONE',  ( 0.0000000000000000000, 9.596246878329864200E-017, -99.62439679120754500 ) ) ;
#56 = CARTESIAN_POINT ( 'NONE',  ( 3.546087271611083000E-016, 2.895600000000006200, 2.789165440984067300E-018 ) ) ;
#57 = CARTESIAN_POINT ( 'NONE',  ( 0.0000000000000000000, -1.694438049129589700E-034, 1.759097808600617900E-016 ) ) ;
#58 = EDGE_CURVE ( 'NONE', #1, #126, #115, .T. ) ;
#59 = ORIENTED_EDGE ( 'NONE', *, *, #183, .F. ) ;
#60 = EDGE_CURVE ( 'NONE', #179, #203, #157, .T. ) ;
#61 = CARTESIAN_POINT ( 'NONE',  ( 0.0000000000000000000, 9.480715862994069500E-017, -98.42499999999999700 ) ) ;
#62 = EDGE_LOOP ( 'NONE', ( #143, #201, #188, #43 ) ) ;
#63 = ADVANCED_FACE ( 'NONE', ( #67 ), #131, .F. ) ;
#64 = VECTOR ( 'NONE', #154, 1000.000000000000000 ) ;
#65 = ORIENTED_EDGE ( 'NONE', *, *, #114, .F. ) ;
#66 = CARTESIAN_POINT ( 'NONE',  ( 0.0000000000000000000, 5.578330881968203000E-019, -0.5791200000000082900 ) ) ;
#67 = FACE_OUTER_BOUND ( 'NONE', #184, .T. ) ;
#68 = PRODUCT_DEFINITION ( 'UNKNOWN', '', #160, #200 ) ;
#69 = CARTESIAN_POINT ( 'NONE',  ( 0.0000000000000000000, -8.672801893822151500E-016, 900.3756032087924300 ) ) ;
#70 = CARTESIAN_POINT ( 'NONE',  ( 3.191478544449969200E-016, -2.316479999999995400, 1.736784485072745300E-016 ) ) ;
#71 = DIRECTION ( 'NONE',  ( -0.0000000000000000000, -9.632426581655137700E-019, 1.000000000000000000 ) ) ;
#72 = DIRECTION ( 'NONE',  ( 0.0000000000000000000, 9.632426581655137700E-019, -1.000000000000000000 ) ) ;
#73 = UNCERTAINTY_MEASURE_WITH_UNIT (LENGTH_MEASURE( 1.000000000000000100E-005 ), #94, 'distance_accuracy_value', 'NONE');
#74 = DIRECTION ( 'NONE',  ( 0.0000000000000000000, 1.000000000000000000, 9.632426581655137700E-019 ) ) ;
#75 = CARTESIAN_POINT ( 'NONE',  ( 0.0000000000000000000, 2.316479999999995400, 1.781411132128490500E-016 ) ) ;
#76 = DIRECTION ( 'NONE',  ( 0.0000000000000000000, 1.000000000000000000, 9.632426581655170500E-019 ) ) ;
#77 = PRESENTATION_LAYER_ASSIGNMENT (  '', '', ( #177 ) ) ;
#78 = APPLICATION_PROTOCOL_DEFINITION ( 'draft international standard', 'automotive_design', 1998, #95 ) ;
#79 = AXIS2_PLACEMENT_3D ( 'NONE', #207, #34, #76 ) ;
#80 = ORIENTED_EDGE ( 'NONE', *, *, #146, .T. ) ;
#81 = FACE_OUTER_BOUND ( 'NONE', #62, .T. ) ;
#82 = EDGE_CURVE ( 'NONE', #1, #203, #83, .T. ) ;
#83 = LINE ( 'NONE', #193, #181 ) ;
#84 = ORIENTED_EDGE ( 'NONE', *, *, #180, .T. ) ;
#85 = CONICAL_SURFACE ( 'NONE', #148, 2414.213562373075100, 1.178097245096169500 ) ;
#86 = DIRECTION ( 'NONE',  ( 0.0000000000000000000, 9.632426581655137700E-019, -1.000000000000000000 ) ) ;
#87 = CARTESIAN_POINT ( 'NONE',  ( 0.0000000000000000000, 9.596246878329864200E-017, -99.62439679120754500 ) ) ;
#88 =( NAMED_UNIT ( * ) SI_UNIT ( $, .STERADIAN. ) SOLID_ANGLE_UNIT ( ) );
#89 = ORIENTED_EDGE ( 'NONE', *, *, #82, .T. ) ;
#90 = DIRECTION ( 'NONE',  ( 0.0000000000000000000, 9.632426581655137700E-019, -1.000000000000000000 ) ) ;
#91 = DIRECTION ( 'NONE',  ( -0.0000000000000000000, -9.632426581655137700E-019, 1.000000000000000000 ) ) ;
#92 = EDGE_CURVE ( 'NONE', #121, #24, #31, .T. ) ;
#93 = CIRCLE ( 'NONE', #4, 2.895600000000006200 ) ;
#94 =( LENGTH_UNIT ( ) NAMED_UNIT ( * ) SI_UNIT ( .MILLI., .METRE. ) );
#95 = APPLICATION_CONTEXT ( 'automotive_design' ) ;
#96 = FILL_AREA_STYLE_COLOUR ( '', #214 ) ;
#97 = LINE ( 'NONE', #55, #113 ) ;
#98 = EDGE_CURVE ( 'NONE', #24, #203, #12, .T. ) ;
#99 = ADVANCED_BREP_SHAPE_REPRESENTATION ( '03-0284', ( #185, #130 ), #48 ) ;
#100 = PRESENTATION_LAYER_ASSIGNMENT (  '', '', ( #15 ) ) ;
#101 = LINE ( 'NONE', #87, #135 ) ;
#102 = CARTESIAN_POINT ( 'NONE',  ( 0.0000000000000000000, -1.694438049129589700E-034, 1.759097808600617900E-016 ) ) ;
#103 = PRODUCT_DEFINITION_SHAPE ( 'NONE', 'NONE',  #68 ) ;
#104 = CARTESIAN_POINT ( 'NONE',  ( 0.0000000000000000000, 9.596246878329864200E-017, -99.62439679120754500 ) ) ;
#105 = ADVANCED_FACE ( 'NONE', ( #2 ), #128, .T. ) ;
#106 = ORIENTED_EDGE ( 'NONE', *, *, #146, .F. ) ;
#107 = CONICAL_SURFACE ( 'NONE', #11, 2414.213562373075100, 1.178097245096169500 ) ;
#108 = SURFACE_STYLE_USAGE ( .BOTH. , #210 ) ;
#109 = DIRECTION ( 'NONE',  ( 1.000000000000000000, 0.0000000000000000000, 0.0000000000000000000 ) ) ;
#110 =( NAMED_UNIT ( * ) PLANE_ANGLE_UNIT ( ) SI_UNIT ( $, .RADIAN. ) );
#111 = AXIS2_PLACEMENT_3D ( 'NONE', #57, #21, #173 ) ;
#112 = VERTEX_POINT ( 'NONE', #104 ) ;
#113 = VECTOR ( 'NONE', #190, 1000.000000000000100 ) ;
#114 = EDGE_CURVE ( 'NONE', #126, #24, #50, .T. ) ;
#115 = CIRCLE ( 'NONE', #111, 2.316479999999995400 ) ;
#116 = DIRECTION ( 'NONE',  ( 0.0000000000000000000, 1.000000000000000000, 9.632426581655170500E-019 ) ) ;
#117 = CARTESIAN_POINT ( 'NONE',  ( 3.546087271611091900E-016, 2.895600000000012800, -98.42499999999999700 ) ) ;
#118 = DIRECTION ( 'NONE',  ( 0.0000000000000000000, -1.000000000000000000, 0.0000000000000000000 ) ) ;
#119 = DIRECTION ( 'NONE',  ( -0.0000000000000000000, -9.632426581655137700E-019, 1.000000000000000000 ) ) ;
#120 = CARTESIAN_POINT ( 'NONE',  ( 0.0000000000000000000, -2.895600000000006200, -2.789165440984067300E-018 ) ) ;
#121 = VERTEX_POINT ( 'NONE', #117 ) ;
#122 = MECHANICAL_DESIGN_GEOMETRIC_PRESENTATION_REPRESENTATION (  '', ( #177 ), #161 ) ;
#123 = DIRECTION ( 'NONE',  ( -0.0000000000000000000, -9.632426581655137700E-019, 1.000000000000000000 ) ) ;
#124 = FACE_OUTER_BOUND ( 'NONE', #162, .T. ) ;
#125 = ADVANCED_FACE ( 'NONE', ( #164 ), #85, .T. ) ;
#126 = VERTEX_POINT ( 'NONE', #206 ) ;
#127 = ADVANCED_FACE ( 'NONE', ( #81 ), #176, .T. ) ;
#128 = CYLINDRICAL_SURFACE ( 'NONE', #29, 2.895600000000006200 ) ;
#129 = SURFACE_STYLE_FILL_AREA ( #54 ) ;
#130 = AXIS2_PLACEMENT_3D ( 'NONE', #204, #175, #109 ) ;
#131 = PLANE ( 'NONE',  #22 ) ;
#132 =( GEOMETRIC_REPRESENTATION_CONTEXT ( 3 ) GLOBAL_UNCERTAINTY_ASSIGNED_CONTEXT ( ( #144 ) ) GLOBAL_UNIT_ASSIGNED_CONTEXT ( ( #189, #23, #88 ) ) REPRESENTATION_CONTEXT ( 'NONE', 'WORKASPACE' ) );
#133 = SURFACE_STYLE_USAGE ( .BOTH. , #20 ) ;
#134 = ORIENTED_EDGE ( 'NONE', *, *, #180, .F. ) ;
#135 = VECTOR ( 'NONE', #5, 1000.000000000000100 ) ;
#136 = DIRECTION ( 'NONE',  ( 0.0000000000000000000, 1.000000000000000000, 0.0000000000000000000 ) ) ;
#137 = ORIENTED_EDGE ( 'NONE', *, *, #98, .F. ) ;
#138 = SURFACE_STYLE_FILL_AREA ( #27 ) ;
#139 = DIRECTION ( 'NONE',  ( 0.0000000000000000000, -1.000000000000000000, 0.0000000000000000000 ) ) ;
#140 = AXIS2_PLACEMENT_3D ( 'NONE', #187, #91, #52 ) ;
#141 = DIRECTION ( 'NONE',  ( -0.0000000000000000000, -9.632426581655137700E-019, 1.000000000000000000 ) ) ;
#142 = ADVANCED_FACE ( 'NONE', ( #124 ), #170, .T. ) ;
#143 = ORIENTED_EDGE ( 'NONE', *, *, #92, .F. ) ;
#144 = UNCERTAINTY_MEASURE_WITH_UNIT (LENGTH_MEASURE( 1.000000000000000100E-005 ), #189, 'distance_accuracy_value', 'NONE');
#145 = ORIENTED_EDGE ( 'NONE', *, *, #183, .T. ) ;
#146 = EDGE_CURVE ( 'NONE', #126, #1, #46, .T. ) ;
#147 = ORIENTED_EDGE ( 'NONE', *, *, #58, .T. ) ;
#148 = AXIS2_PLACEMENT_3D ( 'NONE', #69, #123, #205 ) ;
#149 = EDGE_LOOP ( 'NONE', ( #16, #84, #13 ) ) ;
#150 = CARTESIAN_POINT ( 'NONE',  ( 0.0000000000000000000, 2.895600000000000000, 1.786989463010458500E-016 ) ) ;
#151 = CARTESIAN_POINT ( 'NONE',  ( 0.0000000000000000000, 9.480715862994069500E-017, -98.42499999999999700 ) ) ;
#152 = DIRECTION ( 'NONE',  ( 0.0000000000000000000, -1.000000000000000000, 0.0000000000000000000 ) ) ;
#153 = DIRECTION ( 'NONE',  ( 0.0000000000000000000, -1.000000000000000000, -9.632426581655135800E-019 ) ) ;
#154 = DIRECTION ( 'NONE',  ( -0.0000000000000000000, -9.632426581655137700E-019, 1.000000000000000000 ) ) ;
#155 = CONICAL_SURFACE ( 'NONE', #79, 2.316479999999995400, 0.7853981633974501700 ) ;
#156 = PRODUCT ( '03-0284', '03-0284', '', ( #195 ) ) ;
#157 = LINE ( 'NONE', #120, #64 ) ;
#158 = MECHANICAL_DESIGN_GEOMETRIC_PRESENTATION_REPRESENTATION (  '', ( #15 ), #132 ) ;
#159 = FACE_OUTER_BOUND ( 'NONE', #30, .T. ) ;
#160 = PRODUCT_DEFINITION_FORMATION_WITH_SPECIFIED_SOURCE ( 'ANY', '', #156, .NOT_KNOWN. ) ;
#161 =( GEOMETRIC_REPRESENTATION_CONTEXT ( 3 ) GLOBAL_UNCERTAINTY_ASSIGNED_CONTEXT ( ( #42 ) ) GLOBAL_UNIT_ASSIGNED_CONTEXT ( ( #25, #110, #194 ) ) REPRESENTATION_CONTEXT ( 'NONE', 'WORKASPACE' ) );
#162 = EDGE_LOOP ( 'NONE', ( #28, #89, #137, #65 ) ) ;
#163 = AXIS2_PLACEMENT_3D ( 'NONE', #102, #9, #116 ) ;
#164 = FACE_OUTER_BOUND ( 'NONE', #149, .T. ) ;
#165 = DIRECTION ( 'NONE',  ( 0.0000000000000000000, 9.632426581655137700E-019, -1.000000000000000000 ) ) ;
#166 = DIRECTION ( 'NONE',  ( -0.0000000000000000000, -9.632426581655137700E-019, 1.000000000000000000 ) ) ;
#167 = CARTESIAN_POINT ( 'NONE',  ( 3.546087271611083000E-016, 2.895600000000006200, -0.5791200000000082900 ) ) ;
#168 = CARTESIAN_POINT ( 'NONE',  ( 0.0000000000000000000, -2.895600000000012800, -98.42499999999999700 ) ) ;
#169 = ORIENTED_EDGE ( 'NONE', *, *, #82, .F. ) ;
#170 = CONICAL_SURFACE ( 'NONE', #174, 2.316479999999995400, 0.7853981633974501700 ) ;
#171 = CARTESIAN_POINT ( 'NONE',  ( 0.0000000000000000000, -2.895600000000006200, -0.5791200000000082900 ) ) ;
#172 = EDGE_CURVE ( 'NONE', #203, #24, #93, .T. ) ;
#173 = DIRECTION ( 'NONE',  ( 0.0000000000000000000, 1.000000000000000000, 9.632426581655170500E-019 ) ) ;
#174 = AXIS2_PLACEMENT_3D ( 'NONE', #37, #165, #35 ) ;
#175 = DIRECTION ( 'NONE',  ( 0.0000000000000000000, 0.0000000000000000000, 1.000000000000000000 ) ) ;
#176 = CYLINDRICAL_SURFACE ( 'NONE', #140, 2.895600000000006200 ) ;
#177 = STYLED_ITEM ( 'NONE', ( #47 ), #99 ) ;
#178 =( NAMED_UNIT ( * ) PLANE_ANGLE_UNIT ( ) SI_UNIT ( $, .RADIAN. ) );
#179 = VERTEX_POINT ( 'NONE', #168 ) ;
#180 = EDGE_CURVE ( 'NONE', #112, #179, #101, .T. ) ;
#181 = VECTOR ( 'NONE', #10, 1000.000000000000000 ) ;
#182 = EDGE_LOOP ( 'NONE', ( #134, #17, #59 ) ) ;
#183 = EDGE_CURVE ( 'NONE', #179, #121, #208, .T. ) ;
#184 = EDGE_LOOP ( 'NONE', ( #80, #147 ) ) ;
#185 = MANIFOLD_SOLID_BREP ( '¸ðµû±â1', #192 ) ;
#186 = AXIS2_PLACEMENT_3D ( 'NONE', #61, #141, #139 ) ;
#187 = CARTESIAN_POINT ( 'NONE',  ( 0.0000000000000000000, 0.0000000000000000000, 0.0000000000000000000 ) ) ;
#188 = ORIENTED_EDGE ( 'NONE', *, *, #60, .T. ) ;
#189 =( LENGTH_UNIT ( ) NAMED_UNIT ( * ) SI_UNIT ( .MILLI., .METRE. ) );
#190 = DIRECTION ( 'NONE',  ( 1.131426112287699000E-016, 0.9238795325112855200, 0.3826834323650925000 ) ) ;
#191 = CARTESIAN_POINT ( 'NONE',  ( 0.0000000000000000000, 5.578330881968203000E-019, -0.5791200000000082900 ) ) ;
#192 = CLOSED_SHELL ( 'NONE', ( #142, #105, #209, #63, #125, #127, #38 ) ) ;
#193 = CARTESIAN_POINT ( 'NONE',  ( 2.836869817288854900E-016, -2.316479999999995400, 1.736784485072745300E-016 ) ) ;
#194 =( NAMED_UNIT ( * ) SI_UNIT ( $, .STERADIAN. ) SOLID_ANGLE_UNIT ( ) );
#195 = PRODUCT_CONTEXT ( 'NONE', #95, 'mechanical' ) ;
#196 = APPLICATION_PROTOCOL_DEFINITION ( 'draft international standard', 'automotive_design', 1998, #41 ) ;
#197 = EDGE_CURVE ( 'NONE', #121, #179, #49, .T. ) ;
#198 = EDGE_LOOP ( 'NONE', ( #145, #53, #36, #26 ) ) ;
#199 = COLOUR_RGB ( '',0.7921568627450980000, 0.8196078431372548800, 0.9333333333333333500 ) ;
#200 = PRODUCT_DEFINITION_CONTEXT ( 'detailed design', #41, 'design' ) ;
#201 = ORIENTED_EDGE ( 'NONE', *, *, #197, .T. ) ;
#202 = PRODUCT_RELATED_PRODUCT_CATEGORY ( 'part', '', ( #156 ) ) ;
#203 = VERTEX_POINT ( 'NONE', #171 ) ;
#204 = CARTESIAN_POINT ( 'NONE',  ( 0.0000000000000000000, 0.0000000000000000000, 0.0000000000000000000 ) ) ;
#205 = DIRECTION ( 'NONE',  ( 0.0000000000000000000, -1.000000000000000000, 0.0000000000000000000 ) ) ;
#206 = CARTESIAN_POINT ( 'NONE',  ( 0.0000000000000000000, 2.316479999999995400, 1.781411132128490500E-016 ) ) ;
#207 = CARTESIAN_POINT ( 'NONE',  ( 0.0000000000000000000, -1.694438049129589500E-034, 1.759097808600617900E-016 ) ) ;
#208 = CIRCLE ( 'NONE', #39, 2.895600000000011900 ) ;
#209 = ADVANCED_FACE ( 'NONE', ( #44 ), #107, .T. ) ;
#210 = SURFACE_SIDE_STYLE ('',( #138 ) ) ;
#211 = VECTOR ( 'NONE', #166, 1000.000000000000000 ) ;
#212 = AXIS2_PLACEMENT_3D ( 'NONE', #191, #90, #51 ) ;
#213 = VECTOR ( 'NONE', #19, 1000.000000000000000 ) ;
#214 = COLOUR_RGB ( '',0.7921568627450980000, 0.8196078431372548800, 0.9333333333333333500 ) ;
ENDSEC;
END-ISO-10303-21;
