ISO-10303-21;
HEADER;
FILE_DESCRIPTION (( 'STEP AP214' ),
    '1' );
FILE_NAME ('03-0285.STEP',
    '2020-07-23T06:19:14',
    ( '' ),
    ( '' ),
    'SwSTEP 2.0',
    'SolidWorks 2014',
    '' );
FILE_SCHEMA (( 'AUTOMOTIVE_DESIGN' ));
ENDSEC;

DATA;
#1 = VERTEX_POINT ( 'NONE', #104 ) ;
#2 = DIRECTION ( 'NONE',  ( 0.0000000000000000000, 0.7071067811865486800, -0.7071067811865464600 ) ) ;
#3 = CARTESIAN_POINT ( 'NONE',  ( 0.0000000000000000000, 0.0000000000000000000, 0.0000000000000000000 ) ) ;
#4 = SURFACE_SIDE_STYLE ('',( #201 ) ) ;
#5 = DIRECTION ( 'NONE',  ( 8.659560562354947600E-017, -0.7071067811865486800, -0.7071067811865464600 ) ) ;
#6 = DIRECTION ( 'NONE',  ( 0.0000000000000000000, -1.000000000000000000, -6.608592960993455500E-020 ) ) ;
#7 = LINE ( 'NONE', #175, #99 ) ;
#8 = EDGE_CURVE ( 'NONE', #36, #171, #7, .T. ) ;
#9 = CARTESIAN_POINT ( 'NONE',  ( 0.0000000000000000000, -1.135145237634096300E-035, 1.717680668690256900E-016 ) ) ;
#10 = ADVANCED_FACE ( 'NONE', ( #95 ), #63, .T. ) ;
#11 = FACE_OUTER_BOUND ( 'NONE', #103, .T. ) ;
#12 = FACE_OUTER_BOUND ( 'NONE', #192, .T. ) ;
#13 = CARTESIAN_POINT ( 'NONE',  ( 0.0000000000000000000, 2.806699999999999800, 1.719535502476618600E-016 ) ) ;
#14 = ADVANCED_FACE ( 'NONE', ( #150 ), #149, .F. ) ;
#15 = CARTESIAN_POINT ( 'NONE',  ( 0.0000000000000000000, 2.245360000000001600, 1.719164535719346300E-016 ) ) ;
#16 = CARTESIAN_POINT ( 'NONE',  ( 0.0000000000000000000, -1.135145237634096400E-035, 1.717680668690256900E-016 ) ) ;
#17 = AXIS2_PLACEMENT_3D ( 'NONE', #213, #196, #33 ) ;
#18 = COLOUR_RGB ( '',0.7921568627450980000, 0.8196078431372548800, 0.9333333333333333500 ) ;
#19 = ORIENTED_EDGE ( 'NONE', *, *, #98, .T. ) ;
#20 = FILL_AREA_STYLE ('',( #151 ) ) ;
#21 = VECTOR ( 'NONE', #55, 1000.000000000000000 ) ;
#22 = CIRCLE ( 'NONE', #72, 2.245360000000001600 ) ;
#23 = ORIENTED_EDGE ( 'NONE', *, *, #39, .F. ) ;
#24 = EDGE_CURVE ( 'NONE', #36, #47, #210, .T. ) ;
#25 = PRESENTATION_LAYER_ASSIGNMENT (  '', '', ( #180 ) ) ;
#26 = PRODUCT_DEFINITION_SHAPE ( 'NONE', 'NONE',  #114 ) ;
#27 = SHAPE_DEFINITION_REPRESENTATION ( #26, #42 ) ;
#28 = ORIENTED_EDGE ( 'NONE', *, *, #172, .F. ) ;
#29 = AXIS2_PLACEMENT_3D ( 'NONE', #165, #50, #198 ) ;
#30 = ADVANCED_FACE ( 'NONE', ( #109 ), #127, .T. ) ;
#31 = ORIENTED_EDGE ( 'NONE', *, *, #98, .F. ) ;
#32 = CARTESIAN_POINT ( 'NONE',  ( 0.0000000000000000000, -1.135145237634096300E-035, 1.717680668690256900E-016 ) ) ;
#33 = DIRECTION ( 'NONE',  ( 0.0000000000000000000, 1.000000000000000000, 6.608592960993042600E-020 ) ) ;
#34 = DIRECTION ( 'NONE',  ( 0.0000000000000000000, -1.000000000000000000, 0.0000000000000000000 ) ) ;
#35 = DIRECTION ( 'NONE',  ( -0.0000000000000000000, -6.608592960993455500E-020, 1.000000000000000000 ) ) ;
#36 = VERTEX_POINT ( 'NONE', #73 ) ;
#37 = FILL_AREA_STYLE ('',( #205 ) ) ;
#38 =( NAMED_UNIT ( * ) PLANE_ANGLE_UNIT ( ) SI_UNIT ( $, .RADIAN. ) );
#39 = EDGE_CURVE ( 'NONE', #113, #134, #146, .T. ) ;
#40 = APPLICATION_PROTOCOL_DEFINITION ( 'draft international standard', 'automotive_design', 1998, #124 ) ;
#41 = VECTOR ( 'NONE', #119, 1000.000000000000100 ) ;
#42 = ADVANCED_BREP_SHAPE_REPRESENTATION ( '03-0285', ( #158, #62 ), #187 ) ;
#43 = FACE_OUTER_BOUND ( 'NONE', #71, .T. ) ;
#44 = ORIENTED_EDGE ( 'NONE', *, *, #84, .T. ) ;
#45 = ORIENTED_EDGE ( 'NONE', *, *, #8, .F. ) ;
#46 = EDGE_CURVE ( 'NONE', #115, #1, #183, .T. ) ;
#47 = VERTEX_POINT ( 'NONE', #194 ) ;
#48 = CYLINDRICAL_SURFACE ( 'NONE', #100, 2.806700000000005500 ) ;
#49 = STYLED_ITEM ( 'NONE', ( #142 ), #158 ) ;
#50 = DIRECTION ( 'NONE',  ( -0.0000000000000000000, -6.608592960993455500E-020, 1.000000000000000000 ) ) ;
#51 = CARTESIAN_POINT ( 'NONE',  ( 0.0000000000000000000, 3.709667572724079900E-020, -0.5613400000000020600 ) ) ;
#52 = CARTESIAN_POINT ( 'NONE',  ( 0.0000000000000000000, 3.709667572724079900E-020, -0.5613400000000020600 ) ) ;
#53 = VECTOR ( 'NONE', #60, 1000.000000000000000 ) ;
#54 = MECHANICAL_DESIGN_GEOMETRIC_PRESENTATION_REPRESENTATION (  '', ( #180 ), #77 ) ;
#55 = DIRECTION ( 'NONE',  ( -0.0000000000000000000, -6.608592960993455500E-020, 1.000000000000000000 ) ) ;
#56 = UNCERTAINTY_MEASURE_WITH_UNIT (LENGTH_MEASURE( 1.000000000000000100E-005 ), #110, 'distance_accuracy_value', 'NONE');
#57 =( NAMED_UNIT ( * ) PLANE_ANGLE_UNIT ( ) SI_UNIT ( $, .RADIAN. ) );
#58 =( LENGTH_UNIT ( ) NAMED_UNIT ( * ) SI_UNIT ( .MILLI., .METRE. ) );
#59 = ORIENTED_EDGE ( 'NONE', *, *, #111, .F. ) ;
#60 = DIRECTION ( 'NONE',  ( -0.0000000000000000000, -6.608592960993455500E-020, 1.000000000000000000 ) ) ;
#61 = AXIS2_PLACEMENT_3D ( 'NONE', #9, #177, #193 ) ;
#62 = AXIS2_PLACEMENT_3D ( 'NONE', #3, #182, #68 ) ;
#63 = CONICAL_SURFACE ( 'NONE', #61, 2.245360000000001600, 0.7853981633974498300 ) ;
#64 = PRESENTATION_LAYER_ASSIGNMENT (  '', '', ( #49 ) ) ;
#65 = APPLICATION_PROTOCOL_DEFINITION ( 'draft international standard', 'automotive_design', 1998, #132 ) ;
#66 = ADVANCED_FACE ( 'NONE', ( #12 ), #214, .T. ) ;
#67 = EDGE_LOOP ( 'NONE', ( #80, #169, #23, #88 ) ) ;
#68 = DIRECTION ( 'NONE',  ( 1.000000000000000000, 0.0000000000000000000, 0.0000000000000000000 ) ) ;
#69 = UNCERTAINTY_MEASURE_WITH_UNIT (LENGTH_MEASURE( 1.000000000000000100E-005 ), #108, 'distance_accuracy_value', 'NONE');
#70 = CARTESIAN_POINT ( 'NONE',  ( 0.0000000000000000000, -5.950459225705085100E-017, 900.4124267944873700 ) ) ;
#71 = EDGE_LOOP ( 'NONE', ( #19, #202, #118, #131 ) ) ;
#72 = AXIS2_PLACEMENT_3D ( 'NONE', #16, #35, #181 ) ;
#73 = CARTESIAN_POINT ( 'NONE',  ( 0.0000000000000000000, 6.581337352883708900E-018, -99.58757320551258400 ) ) ;
#74 = CARTESIAN_POINT ( 'NONE',  ( 0.0000000000000000000, 6.504507621857808200E-018, -98.42499999999999700 ) ) ;
#75 = PRODUCT_CONTEXT ( 'NONE', #124, 'mechanical' ) ;
#76 = ORIENTED_EDGE ( 'NONE', *, *, #8, .T. ) ;
#77 =( GEOMETRIC_REPRESENTATION_CONTEXT ( 3 ) GLOBAL_UNCERTAINTY_ASSIGNED_CONTEXT ( ( #129 ) ) GLOBAL_UNIT_ASSIGNED_CONTEXT ( ( #58, #57, #166 ) ) REPRESENTATION_CONTEXT ( 'NONE', 'WORKASPACE' ) );
#78 = SURFACE_STYLE_USAGE ( .BOTH. , #4 ) ;
#79 = EDGE_CURVE ( 'NONE', #171, #47, #144, .T. ) ;
#80 = ORIENTED_EDGE ( 'NONE', *, *, #46, .F. ) ;
#81 = EDGE_LOOP ( 'NONE', ( #28, #116, #83, #59 ) ) ;
#82 = PRODUCT ( '03-0285', '03-0285', '', ( #75 ) ) ;
#83 = ORIENTED_EDGE ( 'NONE', *, *, #153, .T. ) ;
#84 = EDGE_CURVE ( 'NONE', #47, #134, #159, .T. ) ;
#85 = ORIENTED_EDGE ( 'NONE', *, *, #79, .F. ) ;
#86 = PRODUCT_RELATED_PRODUCT_CATEGORY ( 'part', '', ( #82 ) ) ;
#87 = MECHANICAL_DESIGN_GEOMETRIC_PRESENTATION_REPRESENTATION (  '', ( #49 ), #174 ) ;
#88 = ORIENTED_EDGE ( 'NONE', *, *, #153, .F. ) ;
#89 = CARTESIAN_POINT ( 'NONE',  ( 3.093494554050193200E-016, -2.245360000000001600, 1.716196801661167300E-016 ) ) ;
#90 = DIRECTION ( 'NONE',  ( -0.0000000000000000000, -6.608592960993455500E-020, 1.000000000000000000 ) ) ;
#91 = ADVANCED_FACE ( 'NONE', ( #206 ), #168, .T. ) ;
#92 = ORIENTED_EDGE ( 'NONE', *, *, #111, .T. ) ;
#93 = AXIS2_PLACEMENT_3D ( 'NONE', #212, #147, #120 ) ;
#94 = DIRECTION ( 'NONE',  ( -0.0000000000000000000, -6.608592960993455500E-020, 1.000000000000000000 ) ) ;
#95 = FACE_OUTER_BOUND ( 'NONE', #81, .T. ) ;
#96 = PRODUCT_DEFINITION_FORMATION_WITH_SPECIFIED_SOURCE ( 'ANY', '', #82, .NOT_KNOWN. ) ;
#97 = CARTESIAN_POINT ( 'NONE',  ( 3.437216171166883400E-016, 2.806700000000005500, 1.854833786362036900E-019 ) ) ;
#98 = EDGE_CURVE ( 'NONE', #47, #171, #173, .T. ) ;
#99 = VECTOR ( 'NONE', #133, 1000.000000000000100 ) ;
#100 = AXIS2_PLACEMENT_3D ( 'NONE', #126, #94, #185 ) ;
#101 = CIRCLE ( 'NONE', #154, 2.806700000000005500 ) ;
#102 = CYLINDRICAL_SURFACE ( 'NONE', #200, 2.806700000000005500 ) ;
#103 = EDGE_LOOP ( 'NONE', ( #164, #209, #44, #92 ) ) ;
#104 = CARTESIAN_POINT ( 'NONE',  ( 0.0000000000000000000, 2.245360000000001600, 1.719164535719346300E-016 ) ) ;
#105 = AXIS2_PLACEMENT_3D ( 'NONE', #13, #107, #136 ) ;
#106 = PRESENTATION_STYLE_ASSIGNMENT (( #140 ) ) ;
#107 = DIRECTION ( 'NONE',  ( 0.0000000000000000000, 6.608592960993455500E-020, -1.000000000000000000 ) ) ;
#108 =( LENGTH_UNIT ( ) NAMED_UNIT ( * ) SI_UNIT ( .MILLI., .METRE. ) );
#109 = FACE_OUTER_BOUND ( 'NONE', #67, .T. ) ;
#110 =( LENGTH_UNIT ( ) NAMED_UNIT ( * ) SI_UNIT ( .MILLI., .METRE. ) );
#111 = EDGE_CURVE ( 'NONE', #134, #113, #101, .T. ) ;
#112 =( NAMED_UNIT ( * ) SI_UNIT ( $, .STERADIAN. ) SOLID_ANGLE_UNIT ( ) );
#113 = VERTEX_POINT ( 'NONE', #137 ) ;
#114 = PRODUCT_DEFINITION ( 'UNKNOWN', '', #96, #128 ) ;
#115 = VERTEX_POINT ( 'NONE', #89 ) ;
#116 = ORIENTED_EDGE ( 'NONE', *, *, #145, .F. ) ;
#117 = DIRECTION ( 'NONE',  ( 0.0000000000000000000, 6.608592960993455500E-020, -1.000000000000000000 ) ) ;
#118 = ORIENTED_EDGE ( 'NONE', *, *, #39, .T. ) ;
#119 = DIRECTION ( 'NONE',  ( 0.0000000000000000000, -0.9238795325112858500, 0.3826834323650920600 ) ) ;
#120 = DIRECTION ( 'NONE',  ( 0.0000000000000000000, -1.000000000000000000, 0.0000000000000000000 ) ) ;
#121 = CARTESIAN_POINT ( 'NONE',  ( 0.0000000000000000000, 6.581337352883708900E-018, -99.58757320551258400 ) ) ;
#122 = VECTOR ( 'NONE', #5, 999.9999999999998900 ) ;
#123 =( NAMED_UNIT ( * ) SI_UNIT ( $, .STERADIAN. ) SOLID_ANGLE_UNIT ( ) );
#124 = APPLICATION_CONTEXT ( 'automotive_design' ) ;
#125 = CARTESIAN_POINT ( 'NONE',  ( 2.749772936933503000E-016, -2.245360000000001600, 1.716196801661167300E-016 ) ) ;
#126 = CARTESIAN_POINT ( 'NONE',  ( 0.0000000000000000000, 0.0000000000000000000, 0.0000000000000000000 ) ) ;
#127 = CONICAL_SURFACE ( 'NONE', #161, 2.245360000000001600, 0.7853981633974498300 ) ;
#128 = PRODUCT_DEFINITION_CONTEXT ( 'detailed design', #132, 'design' ) ;
#129 = UNCERTAINTY_MEASURE_WITH_UNIT (LENGTH_MEASURE( 1.000000000000000100E-005 ), #58, 'distance_accuracy_value', 'NONE');
#130 = LINE ( 'NONE', #125, #122 ) ;
#131 = ORIENTED_EDGE ( 'NONE', *, *, #84, .F. ) ;
#132 = APPLICATION_CONTEXT ( 'automotive_design' ) ;
#133 = DIRECTION ( 'NONE',  ( 1.131426112287699300E-016, 0.9238795325112858500, 0.3826834323650920600 ) ) ;
#134 = VERTEX_POINT ( 'NONE', #148 ) ;
#135 = DIRECTION ( 'NONE',  ( 0.0000000000000000000, 1.000000000000000000, 6.608592960993042600E-020 ) ) ;
#136 = DIRECTION ( 'NONE',  ( 0.0000000000000000000, 1.000000000000000000, 6.608592960993455500E-020 ) ) ;
#137 = CARTESIAN_POINT ( 'NONE',  ( 3.437216171166883400E-016, 2.806700000000005500, -0.5613400000000020600 ) ) ;
#138 = AXIS2_PLACEMENT_3D ( 'NONE', #70, #90, #211 ) ;
#139 = DIRECTION ( 'NONE',  ( 0.0000000000000000000, 6.608592960993455500E-020, -1.000000000000000000 ) ) ;
#140 = SURFACE_STYLE_USAGE ( .BOTH. , #167 ) ;
#141 = EDGE_LOOP ( 'NONE', ( #189, #152 ) ) ;
#142 = PRESENTATION_STYLE_ASSIGNMENT (( #78 ) ) ;
#143 = VECTOR ( 'NONE', #2, 999.9999999999998900 ) ;
#144 = CIRCLE ( 'NONE', #29, 2.806700000000011700 ) ;
#145 = EDGE_CURVE ( 'NONE', #1, #115, #22, .T. ) ;
#146 = CIRCLE ( 'NONE', #184, 2.806700000000005500 ) ;
#147 = DIRECTION ( 'NONE',  ( -0.0000000000000000000, -6.608592960993455500E-020, 1.000000000000000000 ) ) ;
#148 = CARTESIAN_POINT ( 'NONE',  ( 0.0000000000000000000, -2.806700000000005500, -0.5613400000000020600 ) ) ;
#149 = PLANE ( 'NONE',  #105 ) ;
#150 = FACE_OUTER_BOUND ( 'NONE', #141, .T. ) ;
#151 = FILL_AREA_STYLE_COLOUR ( '', #18 ) ;
#152 = ORIENTED_EDGE ( 'NONE', *, *, #46, .T. ) ;
#153 = EDGE_CURVE ( 'NONE', #1, #113, #191, .T. ) ;
#154 = AXIS2_PLACEMENT_3D ( 'NONE', #52, #162, #179 ) ;
#155 = ORIENTED_EDGE ( 'NONE', *, *, #24, .F. ) ;
#156 = COLOUR_RGB ( '',0.7921568627450980000, 0.8196078431372548800, 0.9333333333333333500 ) ;
#157 = EDGE_LOOP ( 'NONE', ( #45, #195, #85 ) ) ;
#158 = MANIFOLD_SOLID_BREP ( '¸ðµû±â1', #207 ) ;
#159 = LINE ( 'NONE', #160, #21 ) ;
#160 = CARTESIAN_POINT ( 'NONE',  ( 0.0000000000000000000, -2.806700000000005500, -1.854833786362036900E-019 ) ) ;
#161 = AXIS2_PLACEMENT_3D ( 'NONE', #32, #139, #135 ) ;
#162 = DIRECTION ( 'NONE',  ( 0.0000000000000000000, 6.608592960993455500E-020, -1.000000000000000000 ) ) ;
#163 = CARTESIAN_POINT ( 'NONE',  ( 3.437216171166892300E-016, 2.806700000000012600, -98.42499999999999700 ) ) ;
#164 = ORIENTED_EDGE ( 'NONE', *, *, #170, .F. ) ;
#165 = CARTESIAN_POINT ( 'NONE',  ( 0.0000000000000000000, 6.504507621857808200E-018, -98.42499999999999700 ) ) ;
#166 =( NAMED_UNIT ( * ) SI_UNIT ( $, .STERADIAN. ) SOLID_ANGLE_UNIT ( ) );
#167 = SURFACE_SIDE_STYLE ('',( #188 ) ) ;
#168 = CONICAL_SURFACE ( 'NONE', #93, 2414.213562373078300, 1.178097245096170000 ) ;
#169 = ORIENTED_EDGE ( 'NONE', *, *, #172, .T. ) ;
#170 = EDGE_CURVE ( 'NONE', #171, #113, #190, .T. ) ;
#171 = VERTEX_POINT ( 'NONE', #163 ) ;
#172 = EDGE_CURVE ( 'NONE', #115, #134, #130, .T. ) ;
#173 = CIRCLE ( 'NONE', #208, 2.806700000000011700 ) ;
#174 =( GEOMETRIC_REPRESENTATION_CONTEXT ( 3 ) GLOBAL_UNCERTAINTY_ASSIGNED_CONTEXT ( ( #56 ) ) GLOBAL_UNIT_ASSIGNED_CONTEXT ( ( #110, #38, #123 ) ) REPRESENTATION_CONTEXT ( 'NONE', 'WORKASPACE' ) );
#175 = CARTESIAN_POINT ( 'NONE',  ( 0.0000000000000000000, 6.581337352883708900E-018, -99.58757320551258400 ) ) ;
#176 = ADVANCED_FACE ( 'NONE', ( #11 ), #102, .T. ) ;
#177 = DIRECTION ( 'NONE',  ( 0.0000000000000000000, 6.608592960993455500E-020, -1.000000000000000000 ) ) ;
#178 = DIRECTION ( 'NONE',  ( 0.0000000000000000000, 1.000000000000000000, 0.0000000000000000000 ) ) ;
#179 = DIRECTION ( 'NONE',  ( 0.0000000000000000000, 1.000000000000000000, 0.0000000000000000000 ) ) ;
#180 = STYLED_ITEM ( 'NONE', ( #106 ), #42 ) ;
#181 = DIRECTION ( 'NONE',  ( 0.0000000000000000000, 1.000000000000000000, 6.608592960993042600E-020 ) ) ;
#182 = DIRECTION ( 'NONE',  ( 0.0000000000000000000, 0.0000000000000000000, 1.000000000000000000 ) ) ;
#183 = CIRCLE ( 'NONE', #17, 2.245360000000001600 ) ;
#184 = AXIS2_PLACEMENT_3D ( 'NONE', #51, #117, #178 ) ;
#185 = DIRECTION ( 'NONE',  ( 0.0000000000000000000, -1.000000000000000000, -6.608592960993455500E-020 ) ) ;
#186 = CARTESIAN_POINT ( 'NONE',  ( 0.0000000000000000000, 0.0000000000000000000, 0.0000000000000000000 ) ) ;
#187 =( GEOMETRIC_REPRESENTATION_CONTEXT ( 3 ) GLOBAL_UNCERTAINTY_ASSIGNED_CONTEXT ( ( #69 ) ) GLOBAL_UNIT_ASSIGNED_CONTEXT ( ( #108, #204, #112 ) ) REPRESENTATION_CONTEXT ( 'NONE', 'WORKASPACE' ) );
#188 = SURFACE_STYLE_FILL_AREA ( #20 ) ;
#189 = ORIENTED_EDGE ( 'NONE', *, *, #145, .T. ) ;
#190 = LINE ( 'NONE', #97, #53 ) ;
#191 = LINE ( 'NONE', #15, #143 ) ;
#192 = EDGE_LOOP ( 'NONE', ( #155, #76, #31 ) ) ;
#193 = DIRECTION ( 'NONE',  ( 0.0000000000000000000, 1.000000000000000000, 6.608592960993042600E-020 ) ) ;
#194 = CARTESIAN_POINT ( 'NONE',  ( 0.0000000000000000000, -2.806700000000012600, -98.42499999999999700 ) ) ;
#195 = ORIENTED_EDGE ( 'NONE', *, *, #24, .T. ) ;
#196 = DIRECTION ( 'NONE',  ( -0.0000000000000000000, -6.608592960993455500E-020, 1.000000000000000000 ) ) ;
#197 = ADVANCED_FACE ( 'NONE', ( #43 ), #48, .T. ) ;
#198 = DIRECTION ( 'NONE',  ( 0.0000000000000000000, -1.000000000000000000, 0.0000000000000000000 ) ) ;
#199 = DIRECTION ( 'NONE',  ( -0.0000000000000000000, -6.608592960993455500E-020, 1.000000000000000000 ) ) ;
#200 = AXIS2_PLACEMENT_3D ( 'NONE', #186, #203, #6 ) ;
#201 = SURFACE_STYLE_FILL_AREA ( #37 ) ;
#202 = ORIENTED_EDGE ( 'NONE', *, *, #170, .T. ) ;
#203 = DIRECTION ( 'NONE',  ( -0.0000000000000000000, -6.608592960993455500E-020, 1.000000000000000000 ) ) ;
#204 =( NAMED_UNIT ( * ) PLANE_ANGLE_UNIT ( ) SI_UNIT ( $, .RADIAN. ) );
#205 = FILL_AREA_STYLE_COLOUR ( '', #156 ) ;
#206 = FACE_OUTER_BOUND ( 'NONE', #157, .T. ) ;
#207 = CLOSED_SHELL ( 'NONE', ( #30, #197, #66, #14, #91, #176, #10 ) ) ;
#208 = AXIS2_PLACEMENT_3D ( 'NONE', #74, #199, #34 ) ;
#209 = ORIENTED_EDGE ( 'NONE', *, *, #79, .T. ) ;
#210 = LINE ( 'NONE', #121, #41 ) ;
#211 = DIRECTION ( 'NONE',  ( 0.0000000000000000000, -1.000000000000000000, 0.0000000000000000000 ) ) ;
#212 = CARTESIAN_POINT ( 'NONE',  ( 0.0000000000000000000, -5.950459225705085100E-017, 900.4124267944873700 ) ) ;
#213 = CARTESIAN_POINT ( 'NONE',  ( 0.0000000000000000000, -1.135145237634096400E-035, 1.717680668690256900E-016 ) ) ;
#214 = CONICAL_SURFACE ( 'NONE', #138, 2414.213562373078300, 1.178097245096170000 ) ;
ENDSEC;
END-ISO-10303-21;
