ISO-10303-21;
HEADER;
FILE_DESCRIPTION (( 'STEP AP214' ),
    '1' );
FILE_NAME ('03-0286.STEP',
    '2020-07-23T06:19:55',
    ( '' ),
    ( '' ),
    'SwSTEP 2.0',
    'SolidWorks 2014',
    '' );
FILE_SCHEMA (( 'AUTOMOTIVE_DESIGN' ));
ENDSEC;

DATA;
#1 = DIRECTION ( 'NONE',  ( 0.0000000000000000000, -1.000000000000000000, -9.400355091472237700E-021 ) ) ;
#2 = DIRECTION ( 'NONE',  ( 0.0000000000000000000, -1.000000000000000000, 0.0000000000000000000 ) ) ;
#3 = EDGE_CURVE ( 'NONE', #20, #170, #164, .T. ) ;
#4 = CARTESIAN_POINT ( 'NONE',  ( 0.0000000000000000000, 9.059168179500669600E-019, -96.37048910757548000 ) ) ;
#5 = FILL_AREA_STYLE_COLOUR ( '', #156 ) ;
#6 = ADVANCED_FACE ( 'NONE', ( #120 ), #174, .T. ) ;
#7 = VECTOR ( 'NONE', #88, 1000.000000000000000 ) ;
#8 = AXIS2_PLACEMENT_3D ( 'NONE', #168, #148, #102 ) ;
#9 = PRODUCT_DEFINITION_SHAPE ( 'NONE', 'NONE',  #167 ) ;
#10 = FILL_AREA_STYLE_COLOUR ( '', #177 ) ;
#11 = ORIENTED_EDGE ( 'NONE', *, *, #64, .T. ) ;
#12 = EDGE_CURVE ( 'NONE', #186, #214, #51, .T. ) ;
#13 = CIRCLE ( 'NONE', #16, 2.705100000000011400 ) ;
#14 = DIRECTION ( 'NONE',  ( -0.0000000000000000000, -9.400355091472237700E-021, 1.000000000000000000 ) ) ;
#15 = DIRECTION ( 'NONE',  ( -0.0000000000000000000, -9.400355091472237700E-021, 1.000000000000000000 ) ) ;
#16 = AXIS2_PLACEMENT_3D ( 'NONE', #55, #109, #21 ) ;
#17 = VERTEX_POINT ( 'NONE', #202 ) ;
#18 = LINE ( 'NONE', #189, #81 ) ;
#19 =( GEOMETRIC_REPRESENTATION_CONTEXT ( 3 ) GLOBAL_UNCERTAINTY_ASSIGNED_CONTEXT ( ( #118 ) ) GLOBAL_UNIT_ASSIGNED_CONTEXT ( ( #133, #28, #35 ) ) REPRESENTATION_CONTEXT ( 'NONE', 'WORKASPACE' ) );
#20 = VERTEX_POINT ( 'NONE', #123 ) ;
#21 = DIRECTION ( 'NONE',  ( 0.0000000000000000000, -1.000000000000000000, 0.0000000000000000000 ) ) ;
#22 = APPLICATION_PROTOCOL_DEFINITION ( 'draft international standard', 'automotive_design', 1998, #208 ) ;
#23 = PRODUCT ( '03-0286', '03-0286', '', ( #74 ) ) ;
#24 =( NAMED_UNIT ( * ) PLANE_ANGLE_UNIT ( ) SI_UNIT ( $, .RADIAN. ) );
#25 = EDGE_CURVE ( 'NONE', #121, #180, #157, .T. ) ;
#26 = CONICAL_SURFACE ( 'NONE', #61, 2.164080000000012700, 0.7853981633974410600 ) ;
#27 = EDGE_LOOP ( 'NONE', ( #165, #47 ) ) ;
#28 =( NAMED_UNIT ( * ) PLANE_ANGLE_UNIT ( ) SI_UNIT ( $, .RADIAN. ) );
#29 = AXIS2_PLACEMENT_3D ( 'NONE', #66, #187, #82 ) ;
#30 = EDGE_CURVE ( 'NONE', #214, #186, #205, .T. ) ;
#31 = DIRECTION ( 'NONE',  ( -0.0000000000000000000, -9.400355091472237700E-021, 1.000000000000000000 ) ) ;
#32 = CIRCLE ( 'NONE', #29, 2.705100000000011400 ) ;
#33 = DIRECTION ( 'NONE',  ( 0.0000000000000000000, 1.000000000000000000, 0.0000000000000000000 ) ) ;
#34 = ORIENTED_EDGE ( 'NONE', *, *, #178, .F. ) ;
#35 =( NAMED_UNIT ( * ) SI_UNIT ( $, .STERADIAN. ) SOLID_ANGLE_UNIT ( ) );
#36 = AXIS2_PLACEMENT_3D ( 'NONE', #86, #15, #2 ) ;
#37 = CARTESIAN_POINT ( 'NONE',  ( 0.0000000000000000000, -2.705100000000005600, -2.542890055794160200E-020 ) ) ;
#38 = CIRCLE ( 'NONE', #114, 2.164080000000012700 ) ;
#39 = ADVANCED_FACE ( 'NONE', ( #182 ), #144, .T. ) ;
#40 = ORIENTED_EDGE ( 'NONE', *, *, #138, .F. ) ;
#41 = AXIS2_PLACEMENT_3D ( 'NONE', #185, #65, #1 ) ;
#42 = APPLICATION_CONTEXT ( 'automotive_design' ) ;
#43 =( NAMED_UNIT ( * ) PLANE_ANGLE_UNIT ( ) SI_UNIT ( $, .RADIAN. ) );
#44 =( GEOMETRIC_REPRESENTATION_CONTEXT ( 3 ) GLOBAL_UNCERTAINTY_ASSIGNED_CONTEXT ( ( #80 ) ) GLOBAL_UNIT_ASSIGNED_CONTEXT ( ( #115, #24, #92 ) ) REPRESENTATION_CONTEXT ( 'NONE', 'WORKASPACE' ) );
#45 = PRESENTATION_STYLE_ASSIGNMENT (( #197 ) ) ;
#46 = UNCERTAINTY_MEASURE_WITH_UNIT (LENGTH_MEASURE( 1.000000000000000100E-005 ), #112, 'distance_accuracy_value', 'NONE');
#47 = ORIENTED_EDGE ( 'NONE', *, *, #25, .T. ) ;
#48 = CARTESIAN_POINT ( 'NONE',  ( 3.312792056373511700E-016, 2.705100000000005600, -0.5410200000000003900 ) ) ;
#49 = DIRECTION ( 'NONE',  ( -0.0000000000000000000, -9.400355091472237700E-021, 1.000000000000000000 ) ) ;
#50 = CARTESIAN_POINT ( 'NONE',  ( 0.0000000000000000000, 5.085780111588312900E-021, -0.5410200000000003900 ) ) ;
#51 = CIRCLE ( 'NONE', #141, 2.705100000000005600 ) ;
#52 = CARTESIAN_POINT ( 'NONE',  ( 0.0000000000000000000, 2.705099999999999800, 1.656523172689541900E-016 ) ) ;
#53 = DIRECTION ( 'NONE',  ( 0.0000000000000000000, 1.000000000000000000, 9.400355091470353900E-021 ) ) ;
#54 = FACE_OUTER_BOUND ( 'NONE', #201, .T. ) ;
#55 = CARTESIAN_POINT ( 'NONE',  ( 0.0000000000000000000, 8.953838224627308100E-019, -95.25000000000000000 ) ) ;
#56 = EDGE_LOOP ( 'NONE', ( #68, #110, #62 ) ) ;
#57 = AXIS2_PLACEMENT_3D ( 'NONE', #117, #60, #181 ) ;
#58 = LINE ( 'NONE', #37, #7 ) ;
#59 = DIRECTION ( 'NONE',  ( -0.0000000000000000000, -9.400355091472237700E-021, 1.000000000000000000 ) ) ;
#60 = DIRECTION ( 'NONE',  ( -0.0000000000000000000, -9.400355091472237700E-021, 1.000000000000000000 ) ) ;
#61 = AXIS2_PLACEMENT_3D ( 'NONE', #107, #152, #53 ) ;
#62 = ORIENTED_EDGE ( 'NONE', *, *, #87, .F. ) ;
#63 = CONICAL_SURFACE ( 'NONE', #8, 2.164080000000012700, 0.7853981633974410600 ) ;
#64 = EDGE_CURVE ( 'NONE', #180, #186, #153, .T. ) ;
#65 = DIRECTION ( 'NONE',  ( -0.0000000000000000000, -9.400355091472237700E-021, 1.000000000000000000 ) ) ;
#66 = CARTESIAN_POINT ( 'NONE',  ( 0.0000000000000000000, 8.953838224627308100E-019, -95.25000000000000000 ) ) ;
#67 = ORIENTED_EDGE ( 'NONE', *, *, #138, .T. ) ;
#68 = ORIENTED_EDGE ( 'NONE', *, *, #3, .F. ) ;
#69 = CARTESIAN_POINT ( 'NONE',  ( 0.0000000000000000000, 9.059168179500669600E-019, -96.37048910757548000 ) ) ;
#70 = LINE ( 'NONE', #130, #195 ) ;
#71 = MECHANICAL_DESIGN_GEOMETRIC_PRESENTATION_REPRESENTATION (  '', ( #75 ), #19 ) ;
#72 = DIRECTION ( 'NONE',  ( 0.0000000000000000000, 9.400355091472237700E-021, -1.000000000000000000 ) ) ;
#73 = ORIENTED_EDGE ( 'NONE', *, *, #162, .T. ) ;
#74 = PRODUCT_CONTEXT ( 'NONE', #208, 'mechanical' ) ;
#75 = STYLED_ITEM ( 'NONE', ( #45 ), #211 ) ;
#76 = AXIS2_PLACEMENT_3D ( 'NONE', #139, #137, #93 ) ;
#77 = VECTOR ( 'NONE', #126, 1000.000000000000100 ) ;
#78 = SURFACE_SIDE_STYLE ('',( #166 ) ) ;
#79 = ORIENTED_EDGE ( 'NONE', *, *, #12, .F. ) ;
#80 = UNCERTAINTY_MEASURE_WITH_UNIT (LENGTH_MEASURE( 1.000000000000000100E-005 ), #115, 'distance_accuracy_value', 'NONE');
#81 = VECTOR ( 'NONE', #204, 1000.000000000000000 ) ;
#82 = DIRECTION ( 'NONE',  ( 0.0000000000000000000, -1.000000000000000000, 0.0000000000000000000 ) ) ;
#83 = CARTESIAN_POINT ( 'NONE',  ( 2.981512850736165900E-016, -2.164080000000012700, 1.656065452479499000E-016 ) ) ;
#84 = CARTESIAN_POINT ( 'NONE',  ( 0.0000000000000000000, 5.085780111588312900E-021, -0.5410200000000003900 ) ) ;
#85 = ORIENTED_EDGE ( 'NONE', *, *, #25, .F. ) ;
#86 = CARTESIAN_POINT ( 'NONE',  ( 0.0000000000000000000, -8.494438273522170000E-018, 903.6295108924244900 ) ) ;
#87 = EDGE_CURVE ( 'NONE', #170, #17, #13, .T. ) ;
#88 = DIRECTION ( 'NONE',  ( -0.0000000000000000000, -9.400355091472237700E-021, 1.000000000000000000 ) ) ;
#89 = CONICAL_SURFACE ( 'NONE', #57, 2414.213562373064600, 1.178097245096168000 ) ;
#90 = ADVANCED_FACE ( 'NONE', ( #54 ), #26, .T. ) ;
#91 = SURFACE_SIDE_STYLE ('',( #108 ) ) ;
#92 =( NAMED_UNIT ( * ) SI_UNIT ( $, .STERADIAN. ) SOLID_ANGLE_UNIT ( ) );
#93 = DIRECTION ( 'NONE',  ( 1.000000000000000000, 0.0000000000000000000, 0.0000000000000000000 ) ) ;
#94 = ADVANCED_FACE ( 'NONE', ( #140 ), #63, .T. ) ;
#95 = FACE_OUTER_BOUND ( 'NONE', #27, .T. ) ;
#96 = AXIS2_PLACEMENT_3D ( 'NONE', #50, #125, #188 ) ;
#97 = ORIENTED_EDGE ( 'NONE', *, *, #87, .T. ) ;
#98 = FILL_AREA_STYLE ('',( #10 ) ) ;
#99 = PRESENTATION_LAYER_ASSIGNMENT (  '', '', ( #75 ) ) ;
#100 = CYLINDRICAL_SURFACE ( 'NONE', #176, 2.705100000000005600 ) ;
#101 = AXIS2_PLACEMENT_3D ( 'NONE', #104, #49, #149 ) ;
#102 = DIRECTION ( 'NONE',  ( 0.0000000000000000000, 1.000000000000000000, 9.400355091470353900E-021 ) ) ;
#103 = ORIENTED_EDGE ( 'NONE', *, *, #3, .T. ) ;
#104 = CARTESIAN_POINT ( 'NONE',  ( 0.0000000000000000000, -1.556951563358557600E-036, 1.656268883683962600E-016 ) ) ;
#105 =( GEOMETRIC_REPRESENTATION_CONTEXT ( 3 ) GLOBAL_UNCERTAINTY_ASSIGNED_CONTEXT ( ( #46 ) ) GLOBAL_UNIT_ASSIGNED_CONTEXT ( ( #112, #43, #160 ) ) REPRESENTATION_CONTEXT ( 'NONE', 'WORKASPACE' ) );
#106 = LINE ( 'NONE', #4, #77 ) ;
#107 = CARTESIAN_POINT ( 'NONE',  ( 0.0000000000000000000, -1.556951563358557600E-036, 1.656268883683962600E-016 ) ) ;
#108 = SURFACE_STYLE_FILL_AREA ( #193 ) ;
#109 = DIRECTION ( 'NONE',  ( -0.0000000000000000000, -9.400355091472237700E-021, 1.000000000000000000 ) ) ;
#110 = ORIENTED_EDGE ( 'NONE', *, *, #155, .T. ) ;
#111 = ADVANCED_FACE ( 'NONE', ( #200 ), #100, .T. ) ;
#112 =( LENGTH_UNIT ( ) NAMED_UNIT ( * ) SI_UNIT ( .MILLI., .METRE. ) );
#113 = ORIENTED_EDGE ( 'NONE', *, *, #64, .F. ) ;
#114 = AXIS2_PLACEMENT_3D ( 'NONE', #209, #59, #142 ) ;
#115 =( LENGTH_UNIT ( ) NAMED_UNIT ( * ) SI_UNIT ( .MILLI., .METRE. ) );
#116 = PRODUCT_DEFINITION_FORMATION_WITH_SPECIFIED_SOURCE ( 'ANY', '', #23, .NOT_KNOWN. ) ;
#117 = CARTESIAN_POINT ( 'NONE',  ( 0.0000000000000000000, -8.494438273522170000E-018, 903.6295108924244900 ) ) ;
#118 = UNCERTAINTY_MEASURE_WITH_UNIT (LENGTH_MEASURE( 1.000000000000000100E-005 ), #133, 'distance_accuracy_value', 'NONE');
#119 = EDGE_LOOP ( 'NONE', ( #85, #143, #79, #113 ) ) ;
#120 = FACE_OUTER_BOUND ( 'NONE', #158, .T. ) ;
#121 = VERTEX_POINT ( 'NONE', #83 ) ;
#122 = EDGE_CURVE ( 'NONE', #17, #186, #70, .T. ) ;
#123 = CARTESIAN_POINT ( 'NONE',  ( 0.0000000000000000000, 9.059168179500669600E-019, -96.37048910757548000 ) ) ;
#124 = DIRECTION ( 'NONE',  ( 0.0000000000000000000, 9.400355091472236200E-021, -1.000000000000000000 ) ) ;
#125 = DIRECTION ( 'NONE',  ( 0.0000000000000000000, 9.400355091472236200E-021, -1.000000000000000000 ) ) ;
#126 = DIRECTION ( 'NONE',  ( 1.131426112287698000E-016, 0.9238795325112849600, 0.3826834323650938300 ) ) ;
#127 = FACE_OUTER_BOUND ( 'NONE', #56, .T. ) ;
#128 = VECTOR ( 'NONE', #173, 1000.000000000000100 ) ;
#129 = EDGE_LOOP ( 'NONE', ( #194, #103, #199 ) ) ;
#130 = CARTESIAN_POINT ( 'NONE',  ( 3.312792056373511700E-016, 2.705100000000005600, 2.542890055794160200E-020 ) ) ;
#131 = APPLICATION_PROTOCOL_DEFINITION ( 'draft international standard', 'automotive_design', 1998, #42 ) ;
#132 = STYLED_ITEM ( 'NONE', ( #196 ), #169 ) ;
#133 =( LENGTH_UNIT ( ) NAMED_UNIT ( * ) SI_UNIT ( .MILLI., .METRE. ) );
#134 = DIRECTION ( 'NONE',  ( 0.0000000000000000000, -1.000000000000000000, -9.400355091472237700E-021 ) ) ;
#135 = CARTESIAN_POINT ( 'NONE',  ( 0.0000000000000000000, 2.164080000000012700, 1.656472314888426200E-016 ) ) ;
#136 = ORIENTED_EDGE ( 'NONE', *, *, #145, .F. ) ;
#137 = DIRECTION ( 'NONE',  ( 0.0000000000000000000, 0.0000000000000000000, 1.000000000000000000 ) ) ;
#138 = EDGE_CURVE ( 'NONE', #170, #214, #58, .T. ) ;
#139 = CARTESIAN_POINT ( 'NONE',  ( 0.0000000000000000000, 0.0000000000000000000, 0.0000000000000000000 ) ) ;
#140 = FACE_OUTER_BOUND ( 'NONE', #119, .T. ) ;
#141 = AXIS2_PLACEMENT_3D ( 'NONE', #84, #124, #33 ) ;
#142 = DIRECTION ( 'NONE',  ( 0.0000000000000000000, 1.000000000000000000, 9.400355091470353900E-021 ) ) ;
#143 = ORIENTED_EDGE ( 'NONE', *, *, #145, .T. ) ;
#144 = CONICAL_SURFACE ( 'NONE', #36, 2414.213562373064600, 1.178097245096168000 ) ;
#145 = EDGE_CURVE ( 'NONE', #121, #214, #18, .T. ) ;
#146 = DIRECTION ( 'NONE',  ( 0.0000000000000000000, 0.7071067811865424700, -0.7071067811865526800 ) ) ;
#147 = SHAPE_DEFINITION_REPRESENTATION ( #9, #169 ) ;
#148 = DIRECTION ( 'NONE',  ( 0.0000000000000000000, 9.400355091472236200E-021, -1.000000000000000000 ) ) ;
#149 = DIRECTION ( 'NONE',  ( 0.0000000000000000000, 1.000000000000000000, 9.400355091470353900E-021 ) ) ;
#150 = ORIENTED_EDGE ( 'NONE', *, *, #30, .F. ) ;
#151 = AXIS2_PLACEMENT_3D ( 'NONE', #52, #72, #191 ) ;
#152 = DIRECTION ( 'NONE',  ( 0.0000000000000000000, 9.400355091472236200E-021, -1.000000000000000000 ) ) ;
#153 = LINE ( 'NONE', #135, #190 ) ;
#154 = CARTESIAN_POINT ( 'NONE',  ( 0.0000000000000000000, -2.705100000000012300, -95.25000000000000000 ) ) ;
#155 = EDGE_CURVE ( 'NONE', #20, #17, #106, .T. ) ;
#156 = COLOUR_RGB ( '',0.7921568627450980000, 0.8196078431372548800, 0.9333333333333333500 ) ;
#157 = CIRCLE ( 'NONE', #101, 2.164080000000012700 ) ;
#158 = EDGE_LOOP ( 'NONE', ( #97, #172, #198, #40 ) ) ;
#159 = SURFACE_STYLE_USAGE ( .BOTH. , #91 ) ;
#160 =( NAMED_UNIT ( * ) SI_UNIT ( $, .STERADIAN. ) SOLID_ANGLE_UNIT ( ) );
#161 = ADVANCED_FACE ( 'NONE', ( #95 ), #175, .F. ) ;
#162 = EDGE_CURVE ( 'NONE', #17, #170, #32, .T. ) ;
#163 = CARTESIAN_POINT ( 'NONE',  ( 0.0000000000000000000, 2.164080000000012700, 1.656472314888426200E-016 ) ) ;
#164 = LINE ( 'NONE', #69, #128 ) ;
#165 = ORIENTED_EDGE ( 'NONE', *, *, #178, .T. ) ;
#166 = SURFACE_STYLE_FILL_AREA ( #98 ) ;
#167 = PRODUCT_DEFINITION ( 'UNKNOWN', '', #116, #183 ) ;
#168 = CARTESIAN_POINT ( 'NONE',  ( 0.0000000000000000000, -1.556951563358557600E-036, 1.656268883683962600E-016 ) ) ;
#169 = ADVANCED_BREP_SHAPE_REPRESENTATION ( '03-0286', ( #211, #76 ), #105 ) ;
#170 = VERTEX_POINT ( 'NONE', #154 ) ;
#171 = CARTESIAN_POINT ( 'NONE',  ( 0.0000000000000000000, -2.705100000000005600, -0.5410200000000003900 ) ) ;
#172 = ORIENTED_EDGE ( 'NONE', *, *, #122, .T. ) ;
#173 = DIRECTION ( 'NONE',  ( 0.0000000000000000000, -0.9238795325112849600, 0.3826834323650938300 ) ) ;
#174 = CYLINDRICAL_SURFACE ( 'NONE', #41, 2.705100000000005600 ) ;
#175 = PLANE ( 'NONE',  #151 ) ;
#176 = AXIS2_PLACEMENT_3D ( 'NONE', #213, #14, #134 ) ;
#177 = COLOUR_RGB ( '',0.7921568627450980000, 0.8196078431372548800, 0.9333333333333333500 ) ;
#178 = EDGE_CURVE ( 'NONE', #180, #121, #38, .T. ) ;
#179 = PRODUCT_RELATED_PRODUCT_CATEGORY ( 'part', '', ( #23 ) ) ;
#180 = VERTEX_POINT ( 'NONE', #163 ) ;
#181 = DIRECTION ( 'NONE',  ( 0.0000000000000000000, -1.000000000000000000, 0.0000000000000000000 ) ) ;
#182 = FACE_OUTER_BOUND ( 'NONE', #129, .T. ) ;
#183 = PRODUCT_DEFINITION_CONTEXT ( 'detailed design', #42, 'design' ) ;
#184 = PRESENTATION_LAYER_ASSIGNMENT (  '', '', ( #132 ) ) ;
#185 = CARTESIAN_POINT ( 'NONE',  ( 0.0000000000000000000, 0.0000000000000000000, 0.0000000000000000000 ) ) ;
#186 = VERTEX_POINT ( 'NONE', #48 ) ;
#187 = DIRECTION ( 'NONE',  ( -0.0000000000000000000, -9.400355091472237700E-021, 1.000000000000000000 ) ) ;
#188 = DIRECTION ( 'NONE',  ( 0.0000000000000000000, 1.000000000000000000, 0.0000000000000000000 ) ) ;
#189 = CARTESIAN_POINT ( 'NONE',  ( 2.650233645098820000E-016, -2.164080000000012700, 1.656065452479499000E-016 ) ) ;
#190 = VECTOR ( 'NONE', #146, 1000.000000000000000 ) ;
#191 = DIRECTION ( 'NONE',  ( 0.0000000000000000000, 1.000000000000000000, 9.400355091472237700E-021 ) ) ;
#192 = ORIENTED_EDGE ( 'NONE', *, *, #122, .F. ) ;
#193 = FILL_AREA_STYLE ('',( #5 ) ) ;
#194 = ORIENTED_EDGE ( 'NONE', *, *, #155, .F. ) ;
#195 = VECTOR ( 'NONE', #31, 1000.000000000000000 ) ;
#196 = PRESENTATION_STYLE_ASSIGNMENT (( #159 ) ) ;
#197 = SURFACE_STYLE_USAGE ( .BOTH. , #78 ) ;
#198 = ORIENTED_EDGE ( 'NONE', *, *, #12, .T. ) ;
#199 = ORIENTED_EDGE ( 'NONE', *, *, #162, .F. ) ;
#200 = FACE_OUTER_BOUND ( 'NONE', #210, .T. ) ;
#201 = EDGE_LOOP ( 'NONE', ( #136, #34, #11, #150 ) ) ;
#202 = CARTESIAN_POINT ( 'NONE',  ( 3.312792056373520100E-016, 2.705100000000012300, -95.25000000000000000 ) ) ;
#203 = CLOSED_SHELL ( 'NONE', ( #94, #6, #206, #161, #39, #111, #90 ) ) ;
#204 = DIRECTION ( 'NONE',  ( 8.659560562354871200E-017, -0.7071067811865424700, -0.7071067811865526800 ) ) ;
#205 = CIRCLE ( 'NONE', #96, 2.705100000000005600 ) ;
#206 = ADVANCED_FACE ( 'NONE', ( #127 ), #89, .T. ) ;
#207 = ORIENTED_EDGE ( 'NONE', *, *, #30, .T. ) ;
#208 = APPLICATION_CONTEXT ( 'automotive_design' ) ;
#209 = CARTESIAN_POINT ( 'NONE',  ( 0.0000000000000000000, -1.556951563358557600E-036, 1.656268883683962600E-016 ) ) ;
#210 = EDGE_LOOP ( 'NONE', ( #192, #73, #67, #207 ) ) ;
#211 = MANIFOLD_SOLID_BREP ( '¸ðµû±â1', #203 ) ;
#212 = MECHANICAL_DESIGN_GEOMETRIC_PRESENTATION_REPRESENTATION (  '', ( #132 ), #44 ) ;
#213 = CARTESIAN_POINT ( 'NONE',  ( 0.0000000000000000000, 0.0000000000000000000, 0.0000000000000000000 ) ) ;
#214 = VERTEX_POINT ( 'NONE', #171 ) ;
ENDSEC;
END-ISO-10303-21;
