ISO-10303-21;
HEADER;
FILE_DESCRIPTION (( 'STEP AP214' ),
    '1' );
FILE_NAME ('03-0287.STEP',
    '2020-07-23T06:20:36',
    ( '' ),
    ( '' ),
    'SwSTEP 2.0',
    'SolidWorks 2014',
    '' );
FILE_SCHEMA (( 'AUTOMOTIVE_DESIGN' ));
ENDSEC;

DATA;
#1 = CIRCLE ( 'NONE', #44, 2.654300000000005400 ) ;
#2 = AXIS2_PLACEMENT_3D ( 'NONE', #118, #117, #206 ) ;
#3 = FILL_AREA_STYLE_COLOUR ( '', #132 ) ;
#4 = EDGE_CURVE ( 'NONE', #56, #208, #59, .T. ) ;
#5 = ADVANCED_FACE ( 'NONE', ( #93 ), #148, .T. ) ;
#6 = LINE ( 'NONE', #105, #163 ) ;
#7 = APPLICATION_CONTEXT ( 'automotive_design' ) ;
#8 = DIRECTION ( 'NONE',  ( 0.0000000000000000000, 0.0000000000000000000, 1.000000000000000000 ) ) ;
#9 = SURFACE_SIDE_STYLE ('',( #143 ) ) ;
#10 = EDGE_LOOP ( 'NONE', ( #21, #212, #36, #42 ) ) ;
#11 = CARTESIAN_POINT ( 'NONE',  ( 0.0000000000000000000, -1.511082585124449200E-020, -0.5308599999999814600 ) ) ;
#12 = CARTESIAN_POINT ( 'NONE',  ( 0.0000000000000000000, -2.742568125996234900E-018, -96.34944705860692700 ) ) ;
#13 = CARTESIAN_POINT ( 'NONE',  ( 0.0000000000000000000, -2.711272580965015900E-018, -95.25000000000000000 ) ) ;
#14 =( LENGTH_UNIT ( ) NAMED_UNIT ( * ) SI_UNIT ( .MILLI., .METRE. ) );
#15 = FACE_OUTER_BOUND ( 'NONE', #186, .T. ) ;
#16 = VECTOR ( 'NONE', #30, 1000.000000000000000 ) ;
#17 = EDGE_CURVE ( 'NONE', #86, #194, #1, .T. ) ;
#18 = ORIENTED_EDGE ( 'NONE', *, *, #120, .T. ) ;
#19 = ADVANCED_BREP_SHAPE_REPRESENTATION ( '03-0287', ( #89, #39 ), #175 ) ;
#20 = CARTESIAN_POINT ( 'NONE',  ( 0.0000000000000000000, 2.123440000000018200, 1.625063337100640900E-016 ) ) ;
#21 = ORIENTED_EDGE ( 'NONE', *, *, #182, .F. ) ;
#22 = DIRECTION ( 'NONE',  ( -0.0000000000000000000, 2.846480399963271300E-020, 1.000000000000000000 ) ) ;
#23 = APPLICATION_PROTOCOL_DEFINITION ( 'draft international standard', 'automotive_design', 1998, #111 ) ;
#24 = ORIENTED_EDGE ( 'NONE', *, *, #130, .F. ) ;
#25 = FACE_OUTER_BOUND ( 'NONE', #125, .T. ) ;
#26 =( LENGTH_UNIT ( ) NAMED_UNIT ( * ) SI_UNIT ( .MILLI., .METRE. ) );
#27 = CARTESIAN_POINT ( 'NONE',  ( 0.0000000000000000000, 2.123440000000018200, 1.625063337100640900E-016 ) ) ;
#28 = AXIS2_PLACEMENT_3D ( 'NONE', #83, #48, #150 ) ;
#29 = CARTESIAN_POINT ( 'NONE',  ( 2.600463999181478000E-016, -2.123440000000018200, 1.626272203168740400E-016 ) ) ;
#30 = DIRECTION ( 'NONE',  ( -0.0000000000000000000, 2.846480399963271300E-020, 1.000000000000000000 ) ) ;
#31 = ORIENTED_EDGE ( 'NONE', *, *, #107, .F. ) ;
#32 = ORIENTED_EDGE ( 'NONE', *, *, #158, .T. ) ;
#33 = STYLED_ITEM ( 'NONE', ( #178 ), #89 ) ;
#34 = VERTEX_POINT ( 'NONE', #140 ) ;
#35 = VECTOR ( 'NONE', #199, 1000.000000000000000 ) ;
#36 = ORIENTED_EDGE ( 'NONE', *, *, #205, .T. ) ;
#37 = UNCERTAINTY_MEASURE_WITH_UNIT (LENGTH_MEASURE( 1.000000000000000100E-005 ), #14, 'distance_accuracy_value', 'NONE');
#38 = ADVANCED_FACE ( 'NONE', ( #15 ), #188, .F. ) ;
#39 = AXIS2_PLACEMENT_3D ( 'NONE', #127, #8, #202 ) ;
#40 = ADVANCED_FACE ( 'NONE', ( #141 ), #197, .T. ) ;
#41 = ORIENTED_EDGE ( 'NONE', *, *, #155, .T. ) ;
#42 = ORIENTED_EDGE ( 'NONE', *, *, #107, .T. ) ;
#43 = FILL_AREA_STYLE ('',( #3 ) ) ;
#44 = AXIS2_PLACEMENT_3D ( 'NONE', #11, #149, #100 ) ;
#45 = DIRECTION ( 'NONE',  ( 0.0000000000000000000, 1.000000000000000000, -2.846480399963060600E-020 ) ) ;
#46 = UNCERTAINTY_MEASURE_WITH_UNIT (LENGTH_MEASURE( 1.000000000000000100E-005 ), #213, 'distance_accuracy_value', 'NONE');
#47 =( NAMED_UNIT ( * ) PLANE_ANGLE_UNIT ( ) SI_UNIT ( $, .RADIAN. ) );
#48 = DIRECTION ( 'NONE',  ( -0.0000000000000000000, 2.846480399963271300E-020, 1.000000000000000000 ) ) ;
#49 = CARTESIAN_POINT ( 'NONE',  ( 0.0000000000000000000, -2.654300000000005400, 7.555412925622526400E-020 ) ) ;
#50 = PRODUCT_DEFINITION ( 'UNKNOWN', '', #167, #69 ) ;
#51 = DIRECTION ( 'NONE',  ( 0.0000000000000000000, -1.000000000000000000, 0.0000000000000000000 ) ) ;
#52 = ORIENTED_EDGE ( 'NONE', *, *, #99, .T. ) ;
#53 = LINE ( 'NONE', #27, #153 ) ;
#54 = AXIS2_PLACEMENT_3D ( 'NONE', #138, #116, #45 ) ;
#55 = MECHANICAL_DESIGN_GEOMETRIC_PRESENTATION_REPRESENTATION (  '', ( #60 ), #177 ) ;
#56 = VERTEX_POINT ( 'NONE', #12 ) ;
#57 = ADVANCED_FACE ( 'NONE', ( #180 ), #142, .T. ) ;
#58 = APPLICATION_PROTOCOL_DEFINITION ( 'draft international standard', 'automotive_design', 1998, #7 ) ;
#59 = LINE ( 'NONE', #166, #79 ) ;
#60 = STYLED_ITEM ( 'NONE', ( #109 ), #19 ) ;
#61 = FILL_AREA_STYLE_COLOUR ( '', #145 ) ;
#62 = CARTESIAN_POINT ( 'NONE',  ( 3.250579998976826400E-016, 2.654300000000005400, -0.5308599999999814600 ) ) ;
#63 = FACE_OUTER_BOUND ( 'NONE', #102, .T. ) ;
#64 = CARTESIAN_POINT ( 'NONE',  ( 0.0000000000000000000, -1.511082585124449200E-020, -0.5308599999999814600 ) ) ;
#65 = DIRECTION ( 'NONE',  ( 0.0000000000000000000, -2.846480399963271300E-020, -1.000000000000000000 ) ) ;
#66 = SURFACE_STYLE_USAGE ( .BOTH. , #9 ) ;
#67 = CARTESIAN_POINT ( 'NONE',  ( 0.0000000000000000000, -2.711272580965015900E-018, -95.25000000000000000 ) ) ;
#68 = CIRCLE ( 'NONE', #160, 2.654300000000011200 ) ;
#69 = PRODUCT_DEFINITION_CONTEXT ( 'detailed design', #111, 'design' ) ;
#70 = PRODUCT_RELATED_PRODUCT_CATEGORY ( 'part', '', ( #121 ) ) ;
#71 = ORIENTED_EDGE ( 'NONE', *, *, #4, .F. ) ;
#72 = FACE_OUTER_BOUND ( 'NONE', #10, .T. ) ;
#73 = UNCERTAINTY_MEASURE_WITH_UNIT (LENGTH_MEASURE( 1.000000000000000100E-005 ), #26, 'distance_accuracy_value', 'NONE');
#74 = ADVANCED_FACE ( 'NONE', ( #72 ), #137, .T. ) ;
#75 = AXIS2_PLACEMENT_3D ( 'NONE', #131, #22, #189 ) ;
#76 = AXIS2_PLACEMENT_3D ( 'NONE', #129, #65, #204 ) ;
#77 = DIRECTION ( 'NONE',  ( -0.0000000000000000000, 2.846480399963271300E-020, 1.000000000000000000 ) ) ;
#78 = PRODUCT_CONTEXT ( 'NONE', #7, 'mechanical' ) ;
#79 = VECTOR ( 'NONE', #185, 1000.000000000000000 ) ;
#80 = CARTESIAN_POINT ( 'NONE',  ( 0.0000000000000000000, 2.572223587363647700E-017, 903.6505529413930200 ) ) ;
#81 = DIRECTION ( 'NONE',  ( 0.0000000000000000000, -1.000000000000000000, 0.0000000000000000000 ) ) ;
#82 = DIRECTION ( 'NONE',  ( -0.0000000000000000000, 2.846480399963271300E-020, 1.000000000000000000 ) ) ;
#83 = CARTESIAN_POINT ( 'NONE',  ( 0.0000000000000000000, 4.627431444540393300E-036, 1.625667770134690600E-016 ) ) ;
#84 = DIRECTION ( 'NONE',  ( -0.0000000000000000000, 2.846480399963271300E-020, 1.000000000000000000 ) ) ;
#85 = DIRECTION ( 'NONE',  ( 1.131426112287697800E-016, 0.9238795325112846300, 0.3826834323650950000 ) ) ;
#86 = VERTEX_POINT ( 'NONE', #62 ) ;
#87 = SURFACE_SIDE_STYLE ('',( #211 ) ) ;
#88 = EDGE_CURVE ( 'NONE', #156, #86, #53, .T. ) ;
#89 = MANIFOLD_SOLID_BREP ( '¸ðµû±â1', #115 ) ;
#90 = VERTEX_POINT ( 'NONE', #164 ) ;
#91 = EDGE_LOOP ( 'NONE', ( #210, #106, #24 ) ) ;
#92 = CIRCLE ( 'NONE', #195, 2.123440000000018200 ) ;
#93 = FACE_OUTER_BOUND ( 'NONE', #157, .T. ) ;
#94 = ORIENTED_EDGE ( 'NONE', *, *, #205, .F. ) ;
#95 = DIRECTION ( 'NONE',  ( 0.0000000000000000000, -2.846480399963271900E-020, -1.000000000000000000 ) ) ;
#96 = MECHANICAL_DESIGN_GEOMETRIC_PRESENTATION_REPRESENTATION (  '', ( #33 ), #192 ) ;
#97 = CARTESIAN_POINT ( 'NONE',  ( 0.0000000000000000000, 0.0000000000000000000, 0.0000000000000000000 ) ) ;
#98 = ADVANCED_FACE ( 'NONE', ( #63 ), #110, .T. ) ;
#99 = EDGE_CURVE ( 'NONE', #90, #194, #209, .T. ) ;
#100 = DIRECTION ( 'NONE',  ( 0.0000000000000000000, 1.000000000000000000, 0.0000000000000000000 ) ) ;
#101 = CARTESIAN_POINT ( 'NONE',  ( 0.0000000000000000000, 4.627431444540393900E-036, 1.625667770134690600E-016 ) ) ;
#102 = EDGE_LOOP ( 'NONE', ( #123, #108, #128, #31 ) ) ;
#103 = DIRECTION ( 'NONE',  ( -0.0000000000000000000, 2.846480399963271300E-020, 1.000000000000000000 ) ) ;
#104 = DIRECTION ( 'NONE',  ( 0.0000000000000000000, 1.000000000000000000, -2.846480399963060600E-020 ) ) ;
#105 = CARTESIAN_POINT ( 'NONE',  ( 3.250579998976826400E-016, 2.654300000000005400, -7.555412925622526400E-020 ) ) ;
#106 = ORIENTED_EDGE ( 'NONE', *, *, #4, .T. ) ;
#107 = EDGE_CURVE ( 'NONE', #194, #86, #122, .T. ) ;
#108 = ORIENTED_EDGE ( 'NONE', *, *, #155, .F. ) ;
#109 = PRESENTATION_STYLE_ASSIGNMENT (( #135 ) ) ;
#110 = CONICAL_SURFACE ( 'NONE', #54, 2.123440000000018200, 0.7853981633974536100 ) ;
#111 = APPLICATION_CONTEXT ( 'automotive_design' ) ;
#112 = CYLINDRICAL_SURFACE ( 'NONE', #2, 2.654300000000005400 ) ;
#113 =( NAMED_UNIT ( * ) SI_UNIT ( $, .STERADIAN. ) SOLID_ANGLE_UNIT ( ) );
#114 = DIRECTION ( 'NONE',  ( 0.0000000000000000000, 0.7071067811865513500, -0.7071067811865438000 ) ) ;
#115 = CLOSED_SHELL ( 'NONE', ( #57, #162, #5, #38, #40, #74, #98 ) ) ;
#116 = DIRECTION ( 'NONE',  ( 0.0000000000000000000, -2.846480399963271900E-020, -1.000000000000000000 ) ) ;
#117 = DIRECTION ( 'NONE',  ( -0.0000000000000000000, 2.846480399963271300E-020, 1.000000000000000000 ) ) ;
#118 = CARTESIAN_POINT ( 'NONE',  ( 0.0000000000000000000, 0.0000000000000000000, 0.0000000000000000000 ) ) ;
#119 = ORIENTED_EDGE ( 'NONE', *, *, #170, .F. ) ;
#120 = EDGE_CURVE ( 'NONE', #208, #34, #179, .T. ) ;
#121 = PRODUCT ( '03-0287', '03-0287', '', ( #78 ) ) ;
#122 = CIRCLE ( 'NONE', #214, 2.654300000000005400 ) ;
#123 = ORIENTED_EDGE ( 'NONE', *, *, #99, .F. ) ;
#124 = AXIS2_PLACEMENT_3D ( 'NONE', #97, #103, #169 ) ;
#125 = EDGE_LOOP ( 'NONE', ( #18, #191, #196, #94 ) ) ;
#126 = AXIS2_PLACEMENT_3D ( 'NONE', #101, #95, #165 ) ;
#127 = CARTESIAN_POINT ( 'NONE',  ( 0.0000000000000000000, 0.0000000000000000000, 0.0000000000000000000 ) ) ;
#128 = ORIENTED_EDGE ( 'NONE', *, *, #88, .T. ) ;
#129 = CARTESIAN_POINT ( 'NONE',  ( 0.0000000000000000000, 2.654299999999999700, 1.624912228842128600E-016 ) ) ;
#130 = EDGE_CURVE ( 'NONE', #34, #208, #68, .T. ) ;
#131 = CARTESIAN_POINT ( 'NONE',  ( 0.0000000000000000000, 2.572223587363647700E-017, 903.6505529413930200 ) ) ;
#132 = COLOUR_RGB ( '',0.7921568627450980000, 0.8196078431372548800, 0.9333333333333333500 ) ;
#133 = CARTESIAN_POINT ( 'NONE',  ( 0.0000000000000000000, -2.654300000000011200, -95.25000000000000000 ) ) ;
#134 = DIRECTION ( 'NONE',  ( -0.0000000000000000000, 2.846480399963271300E-020, 1.000000000000000000 ) ) ;
#135 = SURFACE_STYLE_USAGE ( .BOTH. , #87 ) ;
#136 =( NAMED_UNIT ( * ) PLANE_ANGLE_UNIT ( ) SI_UNIT ( $, .RADIAN. ) );
#137 = CYLINDRICAL_SURFACE ( 'NONE', #124, 2.654300000000005400 ) ;
#138 = CARTESIAN_POINT ( 'NONE',  ( 0.0000000000000000000, 4.627431444540393900E-036, 1.625667770134690600E-016 ) ) ;
#139 = PRODUCT_DEFINITION_SHAPE ( 'NONE', 'NONE',  #50 ) ;
#140 = CARTESIAN_POINT ( 'NONE',  ( 3.250579998976833300E-016, 2.654300000000011200, -95.25000000000000000 ) ) ;
#141 = FACE_OUTER_BOUND ( 'NONE', #91, .T. ) ;
#142 = CONICAL_SURFACE ( 'NONE', #126, 2.123440000000018200, 0.7853981633974536100 ) ;
#143 = SURFACE_STYLE_FILL_AREA ( #203 ) ;
#144 = CIRCLE ( 'NONE', #28, 2.123440000000018200 ) ;
#145 = COLOUR_RGB ( '',0.7921568627450980000, 0.8196078431372548800, 0.9333333333333333500 ) ;
#146 = DIRECTION ( 'NONE',  ( 0.0000000000000000000, -2.846480399963271900E-020, -1.000000000000000000 ) ) ;
#147 = PRESENTATION_LAYER_ASSIGNMENT (  '', '', ( #60 ) ) ;
#148 = CONICAL_SURFACE ( 'NONE', #154, 2414.213562373056900, 1.178097245096166900 ) ;
#149 = DIRECTION ( 'NONE',  ( 0.0000000000000000000, -2.846480399963271900E-020, -1.000000000000000000 ) ) ;
#150 = DIRECTION ( 'NONE',  ( 0.0000000000000000000, 1.000000000000000000, -2.846480399963060600E-020 ) ) ;
#151 = PRESENTATION_LAYER_ASSIGNMENT (  '', '', ( #33 ) ) ;
#152 = DIRECTION ( 'NONE',  ( 0.0000000000000000000, -1.000000000000000000, 0.0000000000000000000 ) ) ;
#153 = VECTOR ( 'NONE', #114, 1000.000000000000000 ) ;
#154 = AXIS2_PLACEMENT_3D ( 'NONE', #80, #77, #81 ) ;
#155 = EDGE_CURVE ( 'NONE', #156, #90, #144, .T. ) ;
#156 = VERTEX_POINT ( 'NONE', #20 ) ;
#157 = EDGE_LOOP ( 'NONE', ( #71, #32, #161 ) ) ;
#158 = EDGE_CURVE ( 'NONE', #56, #34, #187, .T. ) ;
#159 = SHAPE_DEFINITION_REPRESENTATION ( #139, #19 ) ;
#160 = AXIS2_PLACEMENT_3D ( 'NONE', #13, #207, #51 ) ;
#161 = ORIENTED_EDGE ( 'NONE', *, *, #120, .F. ) ;
#162 = ADVANCED_FACE ( 'NONE', ( #25 ), #112, .T. ) ;
#163 = VECTOR ( 'NONE', #134, 1000.000000000000000 ) ;
#164 = CARTESIAN_POINT ( 'NONE',  ( 2.925521999079152200E-016, -2.123440000000018200, 1.626272203168740400E-016 ) ) ;
#165 = DIRECTION ( 'NONE',  ( 0.0000000000000000000, 1.000000000000000000, -2.846480399963060600E-020 ) ) ;
#166 = CARTESIAN_POINT ( 'NONE',  ( 0.0000000000000000000, -2.742568125996234900E-018, -96.34944705860692700 ) ) ;
#167 = PRODUCT_DEFINITION_FORMATION_WITH_SPECIFIED_SOURCE ( 'ANY', '', #121, .NOT_KNOWN. ) ;
#168 = ORIENTED_EDGE ( 'NONE', *, *, #170, .T. ) ;
#169 = DIRECTION ( 'NONE',  ( 0.0000000000000000000, -1.000000000000000000, 2.846480399963271300E-020 ) ) ;
#170 = EDGE_CURVE ( 'NONE', #90, #156, #92, .T. ) ;
#171 = CARTESIAN_POINT ( 'NONE',  ( 0.0000000000000000000, 4.627431444540393300E-036, 1.625667770134690600E-016 ) ) ;
#172 =( NAMED_UNIT ( * ) SI_UNIT ( $, .STERADIAN. ) SOLID_ANGLE_UNIT ( ) );
#173 = LINE ( 'NONE', #49, #16 ) ;
#174 = CARTESIAN_POINT ( 'NONE',  ( 0.0000000000000000000, -2.742568125996234900E-018, -96.34944705860692700 ) ) ;
#175 =( GEOMETRIC_REPRESENTATION_CONTEXT ( 3 ) GLOBAL_UNCERTAINTY_ASSIGNED_CONTEXT ( ( #37 ) ) GLOBAL_UNIT_ASSIGNED_CONTEXT ( ( #14, #193, #172 ) ) REPRESENTATION_CONTEXT ( 'NONE', 'WORKASPACE' ) );
#176 = ORIENTED_EDGE ( 'NONE', *, *, #88, .F. ) ;
#177 =( GEOMETRIC_REPRESENTATION_CONTEXT ( 3 ) GLOBAL_UNCERTAINTY_ASSIGNED_CONTEXT ( ( #46 ) ) GLOBAL_UNIT_ASSIGNED_CONTEXT ( ( #213, #136, #113 ) ) REPRESENTATION_CONTEXT ( 'NONE', 'WORKASPACE' ) );
#178 = PRESENTATION_STYLE_ASSIGNMENT (( #66 ) ) ;
#179 = CIRCLE ( 'NONE', #181, 2.654300000000011200 ) ;
#180 = FACE_OUTER_BOUND ( 'NONE', #201, .T. ) ;
#181 = AXIS2_PLACEMENT_3D ( 'NONE', #67, #84, #152 ) ;
#182 = EDGE_CURVE ( 'NONE', #34, #86, #6, .T. ) ;
#183 =( NAMED_UNIT ( * ) SI_UNIT ( $, .STERADIAN. ) SOLID_ANGLE_UNIT ( ) );
#184 = DIRECTION ( 'NONE',  ( 0.0000000000000000000, 1.000000000000000000, 0.0000000000000000000 ) ) ;
#185 = DIRECTION ( 'NONE',  ( 0.0000000000000000000, -0.9238795325112846300, 0.3826834323650950000 ) ) ;
#186 = EDGE_LOOP ( 'NONE', ( #41, #168 ) ) ;
#187 = LINE ( 'NONE', #174, #200 ) ;
#188 = PLANE ( 'NONE',  #76 ) ;
#189 = DIRECTION ( 'NONE',  ( 0.0000000000000000000, -1.000000000000000000, 0.0000000000000000000 ) ) ;
#190 = CARTESIAN_POINT ( 'NONE',  ( 0.0000000000000000000, -2.654300000000005400, -0.5308599999999814600 ) ) ;
#191 = ORIENTED_EDGE ( 'NONE', *, *, #182, .T. ) ;
#192 =( GEOMETRIC_REPRESENTATION_CONTEXT ( 3 ) GLOBAL_UNCERTAINTY_ASSIGNED_CONTEXT ( ( #73 ) ) GLOBAL_UNIT_ASSIGNED_CONTEXT ( ( #26, #47, #183 ) ) REPRESENTATION_CONTEXT ( 'NONE', 'WORKASPACE' ) );
#193 =( NAMED_UNIT ( * ) PLANE_ANGLE_UNIT ( ) SI_UNIT ( $, .RADIAN. ) );
#194 = VERTEX_POINT ( 'NONE', #190 ) ;
#195 = AXIS2_PLACEMENT_3D ( 'NONE', #171, #82, #104 ) ;
#196 = ORIENTED_EDGE ( 'NONE', *, *, #17, .T. ) ;
#197 = CONICAL_SURFACE ( 'NONE', #75, 2414.213562373056900, 1.178097245096166900 ) ;
#198 = ORIENTED_EDGE ( 'NONE', *, *, #17, .F. ) ;
#199 = DIRECTION ( 'NONE',  ( 8.659560562354979700E-017, -0.7071067811865513500, -0.7071067811865438000 ) ) ;
#200 = VECTOR ( 'NONE', #85, 1000.000000000000000 ) ;
#201 = EDGE_LOOP ( 'NONE', ( #119, #52, #198, #176 ) ) ;
#202 = DIRECTION ( 'NONE',  ( 1.000000000000000000, 0.0000000000000000000, 0.0000000000000000000 ) ) ;
#203 = FILL_AREA_STYLE ('',( #61 ) ) ;
#204 = DIRECTION ( 'NONE',  ( 0.0000000000000000000, 1.000000000000000000, -2.846480399963271300E-020 ) ) ;
#205 = EDGE_CURVE ( 'NONE', #208, #194, #173, .T. ) ;
#206 = DIRECTION ( 'NONE',  ( 0.0000000000000000000, -1.000000000000000000, 2.846480399963271300E-020 ) ) ;
#207 = DIRECTION ( 'NONE',  ( -0.0000000000000000000, 2.846480399963271300E-020, 1.000000000000000000 ) ) ;
#208 = VERTEX_POINT ( 'NONE', #133 ) ;
#209 = LINE ( 'NONE', #29, #35 ) ;
#210 = ORIENTED_EDGE ( 'NONE', *, *, #158, .F. ) ;
#211 = SURFACE_STYLE_FILL_AREA ( #43 ) ;
#212 = ORIENTED_EDGE ( 'NONE', *, *, #130, .T. ) ;
#213 =( LENGTH_UNIT ( ) NAMED_UNIT ( * ) SI_UNIT ( .MILLI., .METRE. ) );
#214 = AXIS2_PLACEMENT_3D ( 'NONE', #64, #146, #184 ) ;
ENDSEC;
END-ISO-10303-21;
