ISO-10303-21;
HEADER;
FILE_DESCRIPTION (( 'STEP AP214' ),
    '1' );
FILE_NAME ('03-0288.STEP',
    '2020-07-23T06:21:17',
    ( '' ),
    ( '' ),
    'SwSTEP 2.0',
    'SolidWorks 2014',
    '' );
FILE_SCHEMA (( 'AUTOMOTIVE_DESIGN' ));
ENDSEC;

DATA;
#1 = ORIENTED_EDGE ( 'NONE', *, *, #5, .F. ) ;
#2 = AXIS2_PLACEMENT_3D ( 'NONE', #194, #91, #202 ) ;
#3 = CARTESIAN_POINT ( 'NONE',  ( 0.0000000000000000000, -5.099853415108355200E-019, -95.25000000000000000 ) ) ;
#4 =( LENGTH_UNIT ( ) NAMED_UNIT ( * ) SI_UNIT ( .MILLI., .METRE. ) );
#5 = EDGE_CURVE ( 'NONE', #144, #55, #71, .T. ) ;
#6 = DIRECTION ( 'NONE',  ( 0.0000000000000000000, 1.000000000000000000, 0.0000000000000000000 ) ) ;
#7 = ORIENTED_EDGE ( 'NONE', *, *, #17, .F. ) ;
#8 = FACE_OUTER_BOUND ( 'NONE', #209, .T. ) ;
#9 = DIRECTION ( 'NONE',  ( 8.659560562354980900E-017, -0.7071067811865513500, -0.7071067811865438000 ) ) ;
#10 = PRODUCT_CONTEXT ( 'NONE', #117, 'mechanical' ) ;
#11 = LINE ( 'NONE', #90, #36 ) ;
#12 = AXIS2_PLACEMENT_3D ( 'NONE', #81, #32, #43 ) ;
#13 = CARTESIAN_POINT ( 'NONE',  ( 0.0000000000000000000, 2.609849999999999800, 1.598002356385572800E-016 ) ) ;
#14 = VERTEX_POINT ( 'NONE', #62 ) ;
#15 = CIRCLE ( 'NONE', #12, 2.609850000000011800 ) ;
#16 = COLOUR_RGB ( '',0.7921568627450980000, 0.8196078431372548800, 0.9333333333333333500 ) ;
#17 = EDGE_CURVE ( 'NONE', #55, #107, #15, .T. ) ;
#18 = PRODUCT ( '03-0288', '03-0288', '', ( #10 ) ) ;
#19 = SURFACE_STYLE_FILL_AREA ( #150 ) ;
#20 = ORIENTED_EDGE ( 'NONE', *, *, #42, .F. ) ;
#21 = EDGE_LOOP ( 'NONE', ( #54, #20, #188, #145 ) ) ;
#22 = EDGE_CURVE ( 'NONE', #107, #55, #118, .T. ) ;
#23 = PRODUCT_DEFINITION_SHAPE ( 'NONE', 'NONE',  #26 ) ;
#24 = CIRCLE ( 'NONE', #143, 2.087879999999986400 ) ;
#25 = DIRECTION ( 'NONE',  ( 0.0000000000000000000, -5.354176813762053400E-021, -1.000000000000000000 ) ) ;
#26 = PRODUCT_DEFINITION ( 'UNKNOWN', '', #123, #86 ) ;
#27 = DIRECTION ( 'NONE',  ( -0.0000000000000000000, 5.354176813762052600E-021, 1.000000000000000000 ) ) ;
#28 = AXIS2_PLACEMENT_3D ( 'NONE', #126, #27, #149 ) ;
#29 = DIRECTION ( 'NONE',  ( 0.0000000000000000000, -1.000000000000000000, 0.0000000000000000000 ) ) ;
#30 = DIRECTION ( 'NONE',  ( 0.0000000000000000000, 0.0000000000000000000, 1.000000000000000000 ) ) ;
#31 = DIRECTION ( 'NONE',  ( -0.0000000000000000000, 5.354176813762052600E-021, 1.000000000000000000 ) ) ;
#32 = DIRECTION ( 'NONE',  ( -0.0000000000000000000, 5.354176813762052600E-021, 1.000000000000000000 ) ) ;
#33 = ADVANCED_FACE ( 'NONE', ( #186 ), #189, .T. ) ;
#34 = PRESENTATION_STYLE_ASSIGNMENT (( #153 ) ) ;
#35 = ADVANCED_FACE ( 'NONE', ( #184 ), #110, .T. ) ;
#36 = VECTOR ( 'NONE', #129, 1000.000000000000000 ) ;
#37 = MANIFOLD_SOLID_BREP ( '¸ðµû±â1', #124 ) ;
#38 = DIRECTION ( 'NONE',  ( 0.0000000000000000000, -1.000000000000000000, 0.0000000000000000000 ) ) ;
#39 = CARTESIAN_POINT ( 'NONE',  ( 0.0000000000000000000, 8.556735336060055400E-037, 1.598142092369146700E-016 ) ) ;
#40 = SURFACE_SIDE_STYLE ('',( #19 ) ) ;
#41 = ORIENTED_EDGE ( 'NONE', *, *, #213, .F. ) ;
#42 = EDGE_CURVE ( 'NONE', #131, #14, #24, .T. ) ;
#43 = DIRECTION ( 'NONE',  ( 0.0000000000000000000, -1.000000000000000000, 0.0000000000000000000 ) ) ;
#44 = ADVANCED_FACE ( 'NONE', ( #193 ), #142, .T. ) ;
#45 = ORIENTED_EDGE ( 'NONE', *, *, #48, .T. ) ;
#46 =( GEOMETRIC_REPRESENTATION_CONTEXT ( 3 ) GLOBAL_UNCERTAINTY_ASSIGNED_CONTEXT ( ( #73 ) ) GLOBAL_UNIT_ASSIGNED_CONTEXT ( ( #136, #134, #182 ) ) REPRESENTATION_CONTEXT ( 'NONE', 'WORKASPACE' ) );
#47 = CONICAL_SURFACE ( 'NONE', #103, 2414.213562373043300, 1.178097245096164900 ) ;
#48 = EDGE_CURVE ( 'NONE', #14, #121, #214, .T. ) ;
#49 = EDGE_LOOP ( 'NONE', ( #41, #163, #155, #171 ) ) ;
#50 = DIRECTION ( 'NONE',  ( -0.0000000000000000000, 5.354176813762052600E-021, 1.000000000000000000 ) ) ;
#51 = MECHANICAL_DESIGN_GEOMETRIC_PRESENTATION_REPRESENTATION (  '', ( #203 ), #97 ) ;
#52 = FILL_AREA_STYLE_COLOUR ( '', #93 ) ;
#53 = CARTESIAN_POINT ( 'NONE',  ( 0.0000000000000000000, -5.157733954656238500E-019, -96.33103526575945400 ) ) ;
#54 = ORIENTED_EDGE ( 'NONE', *, *, #48, .F. ) ;
#55 = VERTEX_POINT ( 'NONE', #174 ) ;
#56 = AXIS2_PLACEMENT_3D ( 'NONE', #180, #30, #208 ) ;
#57 = CARTESIAN_POINT ( 'NONE',  ( 2.556915559003759400E-016, -2.087879999999986400, 1.598253881156005900E-016 ) ) ;
#58 = AXIS2_PLACEMENT_3D ( 'NONE', #13, #161, #207 ) ;
#59 = DIRECTION ( 'NONE',  ( 0.0000000000000000000, 1.000000000000000000, -5.354176813766104600E-021 ) ) ;
#60 = STYLED_ITEM ( 'NONE', ( #34 ), #116 ) ;
#61 = CONICAL_SURFACE ( 'NONE', #210, 2.087879999999986400, 0.7853981633974536100 ) ;
#62 = CARTESIAN_POINT ( 'NONE',  ( 2.876530003879243200E-016, -2.087879999999986400, 1.598253881156005900E-016 ) ) ;
#63 = CARTESIAN_POINT ( 'NONE',  ( 3.196144448754726600E-016, 2.609850000000005600, -1.397359835739692300E-020 ) ) ;
#64 = CARTESIAN_POINT ( 'NONE',  ( 0.0000000000000000000, 8.556735336060057100E-037, 1.598142092369146700E-016 ) ) ;
#65 =( LENGTH_UNIT ( ) NAMED_UNIT ( * ) SI_UNIT ( .MILLI., .METRE. ) );
#66 = ADVANCED_FACE ( 'NONE', ( #8 ), #47, .T. ) ;
#67 = ORIENTED_EDGE ( 'NONE', *, *, #157, .F. ) ;
#68 = EDGE_CURVE ( 'NONE', #121, #70, #75, .T. ) ;
#69 = UNCERTAINTY_MEASURE_WITH_UNIT (LENGTH_MEASURE( 1.000000000000000100E-005 ), #65, 'distance_accuracy_value', 'NONE');
#70 = VERTEX_POINT ( 'NONE', #201 ) ;
#71 = LINE ( 'NONE', #130, #158 ) ;
#72 = PRESENTATION_LAYER_ASSIGNMENT (  '', '', ( #60 ) ) ;
#73 = UNCERTAINTY_MEASURE_WITH_UNIT (LENGTH_MEASURE( 1.000000000000000100E-005 ), #136, 'distance_accuracy_value', 'NONE');
#74 = DIRECTION ( 'NONE',  ( -0.0000000000000000000, 5.354176813762052600E-021, 1.000000000000000000 ) ) ;
#75 = CIRCLE ( 'NONE', #187, 2.609850000000005600 ) ;
#76 =( NAMED_UNIT ( * ) PLANE_ANGLE_UNIT ( ) SI_UNIT ( $, .RADIAN. ) );
#77 = AXIS2_PLACEMENT_3D ( 'NONE', #64, #177, #122 ) ;
#78 = CARTESIAN_POINT ( 'NONE',  ( 3.196144448754734400E-016, 2.609850000000012200, -95.25000000000000000 ) ) ;
#79 = CARTESIAN_POINT ( 'NONE',  ( 0.0000000000000000000, -2.609850000000005600, -0.5219700000000134800 ) ) ;
#80 = CARTESIAN_POINT ( 'NONE',  ( 0.0000000000000000000, -2.794719671479450900E-021, -0.5219700000000134800 ) ) ;
#81 = CARTESIAN_POINT ( 'NONE',  ( 0.0000000000000000000, -5.099853415108355200E-019, -95.25000000000000000 ) ) ;
#82 = DIRECTION ( 'NONE',  ( -0.0000000000000000000, 5.354176813762052600E-021, 1.000000000000000000 ) ) ;
#83 = EDGE_CURVE ( 'NONE', #131, #70, #11, .T. ) ;
#84 = ORIENTED_EDGE ( 'NONE', *, *, #168, .T. ) ;
#85 = FACE_OUTER_BOUND ( 'NONE', #139, .T. ) ;
#86 = PRODUCT_DEFINITION_CONTEXT ( 'detailed design', #137, 'design' ) ;
#87 = ORIENTED_EDGE ( 'NONE', *, *, #199, .F. ) ;
#88 = VECTOR ( 'NONE', #31, 1000.000000000000000 ) ;
#89 = LINE ( 'NONE', #176, #156 ) ;
#90 = CARTESIAN_POINT ( 'NONE',  ( 0.0000000000000000000, 2.087879999999986400, 1.598030303582287400E-016 ) ) ;
#91 = DIRECTION ( 'NONE',  ( 0.0000000000000000000, -5.354176813762053400E-021, -1.000000000000000000 ) ) ;
#92 = EDGE_LOOP ( 'NONE', ( #87, #179, #205 ) ) ;
#93 = COLOUR_RGB ( '',0.7921568627450980000, 0.8196078431372548800, 0.9333333333333333500 ) ;
#94 = AXIS2_PLACEMENT_3D ( 'NONE', #141, #82, #98 ) ;
#95 = DIRECTION ( 'NONE',  ( -0.0000000000000000000, 5.354176813762052600E-021, 1.000000000000000000 ) ) ;
#96 = FILL_AREA_STYLE ('',( #196 ) ) ;
#97 =( GEOMETRIC_REPRESENTATION_CONTEXT ( 3 ) GLOBAL_UNCERTAINTY_ASSIGNED_CONTEXT ( ( #162 ) ) GLOBAL_UNIT_ASSIGNED_CONTEXT ( ( #4, #76, #113 ) ) REPRESENTATION_CONTEXT ( 'NONE', 'WORKASPACE' ) );
#98 = DIRECTION ( 'NONE',  ( 0.0000000000000000000, -1.000000000000000000, 5.354176813762052600E-021 ) ) ;
#99 = DIRECTION ( 'NONE',  ( 0.0000000000000000000, -0.9238795325112838500, 0.3826834323650967800 ) ) ;
#100 = APPLICATION_PROTOCOL_DEFINITION ( 'draft international standard', 'automotive_design', 1998, #137 ) ;
#101 = ADVANCED_FACE ( 'NONE', ( #197 ), #164, .T. ) ;
#102 = EDGE_LOOP ( 'NONE', ( #127, #120, #84, #67 ) ) ;
#103 = AXIS2_PLACEMENT_3D ( 'NONE', #204, #192, #29 ) ;
#104 = ORIENTED_EDGE ( 'NONE', *, *, #172, .T. ) ;
#105 = PRESENTATION_STYLE_ASSIGNMENT (( #160 ) ) ;
#106 = PRODUCT_RELATED_PRODUCT_CATEGORY ( 'part', '', ( #18 ) ) ;
#107 = VERTEX_POINT ( 'NONE', #78 ) ;
#108 = LINE ( 'NONE', #53, #140 ) ;
#109 = DIRECTION ( 'NONE',  ( 0.0000000000000000000, -1.000000000000000000, 5.354176813762052600E-021 ) ) ;
#110 = CYLINDRICAL_SURFACE ( 'NONE', #94, 2.609850000000005600 ) ;
#111 = DIRECTION ( 'NONE',  ( 1.131426112287696800E-016, 0.9238795325112838500, 0.3826834323650967800 ) ) ;
#112 = DIRECTION ( 'NONE',  ( -0.0000000000000000000, 5.354176813762052600E-021, 1.000000000000000000 ) ) ;
#113 =( NAMED_UNIT ( * ) SI_UNIT ( $, .STERADIAN. ) SOLID_ANGLE_UNIT ( ) );
#114 =( NAMED_UNIT ( * ) SI_UNIT ( $, .STERADIAN. ) SOLID_ANGLE_UNIT ( ) );
#115 = SURFACE_SIDE_STYLE ('',( #175 ) ) ;
#116 = ADVANCED_BREP_SHAPE_REPRESENTATION ( '03-0288', ( #37, #56 ), #46 ) ;
#117 = APPLICATION_CONTEXT ( 'automotive_design' ) ;
#118 = CIRCLE ( 'NONE', #165, 2.609850000000011800 ) ;
#119 =( NAMED_UNIT ( * ) PLANE_ANGLE_UNIT ( ) SI_UNIT ( $, .RADIAN. ) );
#120 = ORIENTED_EDGE ( 'NONE', *, *, #213, .T. ) ;
#121 = VERTEX_POINT ( 'NONE', #79 ) ;
#122 = DIRECTION ( 'NONE',  ( 0.0000000000000000000, 1.000000000000000000, -5.354176813766104600E-021 ) ) ;
#123 = PRODUCT_DEFINITION_FORMATION_WITH_SPECIFIED_SOURCE ( 'ANY', '', #18, .NOT_KNOWN. ) ;
#124 = CLOSED_SHELL ( 'NONE', ( #33, #35, #66, #211, #44, #101, #132 ) ) ;
#125 = CARTESIAN_POINT ( 'NONE',  ( 0.0000000000000000000, 2.087879999999986400, 1.598030303582287400E-016 ) ) ;
#126 = CARTESIAN_POINT ( 'NONE',  ( 0.0000000000000000000, 8.556735336060055400E-037, 1.598142092369146700E-016 ) ) ;
#127 = ORIENTED_EDGE ( 'NONE', *, *, #17, .T. ) ;
#128 = CARTESIAN_POINT ( 'NONE',  ( 0.0000000000000000000, 0.0000000000000000000, 0.0000000000000000000 ) ) ;
#129 = DIRECTION ( 'NONE',  ( 0.0000000000000000000, 0.7071067811865513500, -0.7071067811865438000 ) ) ;
#130 = CARTESIAN_POINT ( 'NONE',  ( 0.0000000000000000000, -5.157733954656238500E-019, -96.33103526575945400 ) ) ;
#131 = VERTEX_POINT ( 'NONE', #125 ) ;
#132 = ADVANCED_FACE ( 'NONE', ( #133 ), #61, .T. ) ;
#133 = FACE_OUTER_BOUND ( 'NONE', #21, .T. ) ;
#134 =( NAMED_UNIT ( * ) PLANE_ANGLE_UNIT ( ) SI_UNIT ( $, .RADIAN. ) );
#135 = MECHANICAL_DESIGN_GEOMETRIC_PRESENTATION_REPRESENTATION (  '', ( #60 ), #198 ) ;
#136 =( LENGTH_UNIT ( ) NAMED_UNIT ( * ) SI_UNIT ( .MILLI., .METRE. ) );
#137 = APPLICATION_CONTEXT ( 'automotive_design' ) ;
#138 = PRESENTATION_LAYER_ASSIGNMENT (  '', '', ( #203 ) ) ;
#139 = EDGE_LOOP ( 'NONE', ( #212, #104 ) ) ;
#140 = VECTOR ( 'NONE', #111, 1000.000000000000000 ) ;
#141 = CARTESIAN_POINT ( 'NONE',  ( 0.0000000000000000000, 0.0000000000000000000, 0.0000000000000000000 ) ) ;
#142 = CONICAL_SURFACE ( 'NONE', #181, 2414.213562373043300, 1.178097245096164900 ) ;
#143 = AXIS2_PLACEMENT_3D ( 'NONE', #39, #112, #190 ) ;
#144 = VERTEX_POINT ( 'NONE', #206 ) ;
#145 = ORIENTED_EDGE ( 'NONE', *, *, #68, .F. ) ;
#146 = CARTESIAN_POINT ( 'NONE',  ( 0.0000000000000000000, 4.838403418296429000E-018, 903.6689647342404900 ) ) ;
#147 = DIRECTION ( 'NONE',  ( -0.0000000000000000000, 5.354176813762052600E-021, 1.000000000000000000 ) ) ;
#148 = ORIENTED_EDGE ( 'NONE', *, *, #199, .T. ) ;
#149 = DIRECTION ( 'NONE',  ( 0.0000000000000000000, 1.000000000000000000, -5.354176813766104600E-021 ) ) ;
#150 = FILL_AREA_STYLE ('',( #52 ) ) ;
#151 = DIRECTION ( 'NONE',  ( 0.0000000000000000000, -5.354176813762053400E-021, -1.000000000000000000 ) ) ;
#152 = ORIENTED_EDGE ( 'NONE', *, *, #83, .F. ) ;
#153 = SURFACE_STYLE_USAGE ( .BOTH. , #115 ) ;
#154 = CIRCLE ( 'NONE', #2, 2.609850000000005600 ) ;
#155 = ORIENTED_EDGE ( 'NONE', *, *, #157, .T. ) ;
#156 = VECTOR ( 'NONE', #147, 1000.000000000000000 ) ;
#157 = EDGE_CURVE ( 'NONE', #55, #121, #89, .T. ) ;
#158 = VECTOR ( 'NONE', #99, 1000.000000000000000 ) ;
#159 = DIRECTION ( 'NONE',  ( 0.0000000000000000000, -1.000000000000000000, 0.0000000000000000000 ) ) ;
#160 = SURFACE_STYLE_USAGE ( .BOTH. , #40 ) ;
#161 = DIRECTION ( 'NONE',  ( 0.0000000000000000000, -5.354176813762052600E-021, -1.000000000000000000 ) ) ;
#162 = UNCERTAINTY_MEASURE_WITH_UNIT (LENGTH_MEASURE( 1.000000000000000100E-005 ), #4, 'distance_accuracy_value', 'NONE');
#163 = ORIENTED_EDGE ( 'NONE', *, *, #22, .T. ) ;
#164 = CYLINDRICAL_SURFACE ( 'NONE', #191, 2.609850000000005600 ) ;
#165 = AXIS2_PLACEMENT_3D ( 'NONE', #3, #50, #38 ) ;
#166 = SHAPE_DEFINITION_REPRESENTATION ( #23, #116 ) ;
#167 = CIRCLE ( 'NONE', #28, 2.087879999999986400 ) ;
#168 = EDGE_CURVE ( 'NONE', #70, #121, #154, .T. ) ;
#169 = ORIENTED_EDGE ( 'NONE', *, *, #168, .F. ) ;
#170 = PLANE ( 'NONE',  #58 ) ;
#171 = ORIENTED_EDGE ( 'NONE', *, *, #68, .T. ) ;
#172 = EDGE_CURVE ( 'NONE', #14, #131, #167, .T. ) ;
#173 = LINE ( 'NONE', #63, #88 ) ;
#174 = CARTESIAN_POINT ( 'NONE',  ( 0.0000000000000000000, -2.609850000000012200, -95.25000000000000000 ) ) ;
#175 = SURFACE_STYLE_FILL_AREA ( #96 ) ;
#176 = CARTESIAN_POINT ( 'NONE',  ( 0.0000000000000000000, -2.609850000000005600, 1.397359835739692300E-020 ) ) ;
#177 = DIRECTION ( 'NONE',  ( 0.0000000000000000000, -5.354176813762053400E-021, -1.000000000000000000 ) ) ;
#178 = APPLICATION_PROTOCOL_DEFINITION ( 'draft international standard', 'automotive_design', 1998, #117 ) ;
#179 = ORIENTED_EDGE ( 'NONE', *, *, #5, .T. ) ;
#180 = CARTESIAN_POINT ( 'NONE',  ( 0.0000000000000000000, 0.0000000000000000000, 0.0000000000000000000 ) ) ;
#181 = AXIS2_PLACEMENT_3D ( 'NONE', #146, #95, #159 ) ;
#182 =( NAMED_UNIT ( * ) SI_UNIT ( $, .STERADIAN. ) SOLID_ANGLE_UNIT ( ) );
#183 = EDGE_LOOP ( 'NONE', ( #185, #45, #169, #152 ) ) ;
#184 = FACE_OUTER_BOUND ( 'NONE', #102, .T. ) ;
#185 = ORIENTED_EDGE ( 'NONE', *, *, #172, .F. ) ;
#186 = FACE_OUTER_BOUND ( 'NONE', #183, .T. ) ;
#187 = AXIS2_PLACEMENT_3D ( 'NONE', #80, #151, #6 ) ;
#188 = ORIENTED_EDGE ( 'NONE', *, *, #83, .T. ) ;
#189 = CONICAL_SURFACE ( 'NONE', #77, 2.087879999999986400, 0.7853981633974536100 ) ;
#190 = DIRECTION ( 'NONE',  ( 0.0000000000000000000, 1.000000000000000000, -5.354176813766104600E-021 ) ) ;
#191 = AXIS2_PLACEMENT_3D ( 'NONE', #128, #74, #109 ) ;
#192 = DIRECTION ( 'NONE',  ( -0.0000000000000000000, 5.354176813762052600E-021, 1.000000000000000000 ) ) ;
#193 = FACE_OUTER_BOUND ( 'NONE', #92, .T. ) ;
#194 = CARTESIAN_POINT ( 'NONE',  ( 0.0000000000000000000, -2.794719671479450900E-021, -0.5219700000000134800 ) ) ;
#195 = CARTESIAN_POINT ( 'NONE',  ( 0.0000000000000000000, 8.556735336060057100E-037, 1.598142092369146700E-016 ) ) ;
#196 = FILL_AREA_STYLE_COLOUR ( '', #16 ) ;
#197 = FACE_OUTER_BOUND ( 'NONE', #49, .T. ) ;
#198 =( GEOMETRIC_REPRESENTATION_CONTEXT ( 3 ) GLOBAL_UNCERTAINTY_ASSIGNED_CONTEXT ( ( #69 ) ) GLOBAL_UNIT_ASSIGNED_CONTEXT ( ( #65, #119, #114 ) ) REPRESENTATION_CONTEXT ( 'NONE', 'WORKASPACE' ) );
#199 = EDGE_CURVE ( 'NONE', #144, #107, #108, .T. ) ;
#200 = VECTOR ( 'NONE', #9, 1000.000000000000000 ) ;
#201 = CARTESIAN_POINT ( 'NONE',  ( 3.196144448754726600E-016, 2.609850000000005600, -0.5219700000000134800 ) ) ;
#202 = DIRECTION ( 'NONE',  ( 0.0000000000000000000, 1.000000000000000000, 0.0000000000000000000 ) ) ;
#203 = STYLED_ITEM ( 'NONE', ( #105 ), #37 ) ;
#204 = CARTESIAN_POINT ( 'NONE',  ( 0.0000000000000000000, 4.838403418296429000E-018, 903.6689647342404900 ) ) ;
#205 = ORIENTED_EDGE ( 'NONE', *, *, #22, .F. ) ;
#206 = CARTESIAN_POINT ( 'NONE',  ( 0.0000000000000000000, -5.157733954656238500E-019, -96.33103526575945400 ) ) ;
#207 = DIRECTION ( 'NONE',  ( 0.0000000000000000000, 1.000000000000000000, -5.354176813762052600E-021 ) ) ;
#208 = DIRECTION ( 'NONE',  ( 1.000000000000000000, 0.0000000000000000000, 0.0000000000000000000 ) ) ;
#209 = EDGE_LOOP ( 'NONE', ( #1, #148, #7 ) ) ;
#210 = AXIS2_PLACEMENT_3D ( 'NONE', #195, #25, #59 ) ;
#211 = ADVANCED_FACE ( 'NONE', ( #85 ), #170, .F. ) ;
#212 = ORIENTED_EDGE ( 'NONE', *, *, #42, .T. ) ;
#213 = EDGE_CURVE ( 'NONE', #107, #70, #173, .T. ) ;
#214 = LINE ( 'NONE', #57, #200 ) ;
ENDSEC;
END-ISO-10303-21;
