ISO-10303-21;
HEADER;
FILE_DESCRIPTION (( 'STEP AP214' ),
    '1' );
FILE_NAME ('03-0289.STEP',
    '2020-07-23T06:21:58',
    ( '' ),
    ( '' ),
    'SwSTEP 2.0',
    'SolidWorks 2014',
    '' );
FILE_SCHEMA (( 'AUTOMOTIVE_DESIGN' ));
ENDSEC;

DATA;
#1 = VERTEX_POINT ( 'NONE', #126 ) ;
#2 = DIRECTION ( 'NONE',  ( -0.0000000000000000000, -1.196177376055253000E-020, 1.000000000000000000 ) ) ;
#3 = APPLICATION_PROTOCOL_DEFINITION ( 'draft international standard', 'automotive_design', 1998, #204 ) ;
#4 =( LENGTH_UNIT ( ) NAMED_UNIT ( * ) SI_UNIT ( .MILLI., .METRE. ) );
#5 = SURFACE_STYLE_FILL_AREA ( #15 ) ;
#6 = DIRECTION ( 'NONE',  ( 0.0000000000000000000, -1.000000000000000000, -1.196177376055253000E-020 ) ) ;
#7 = FACE_OUTER_BOUND ( 'NONE', #137, .T. ) ;
#8 = EDGE_CURVE ( 'NONE', #53, #172, #69, .T. ) ;
#9 = AXIS2_PLACEMENT_3D ( 'NONE', #76, #93, #72 ) ;
#10 = ORIENTED_EDGE ( 'NONE', *, *, #198, .F. ) ;
#11 = SURFACE_SIDE_STYLE ('',( #5 ) ) ;
#12 = ADVANCED_FACE ( 'NONE', ( #57 ), #92, .T. ) ;
#13 = LINE ( 'NONE', #80, #124 ) ;
#14 = FILL_AREA_STYLE_COLOUR ( '', #139 ) ;
#15 = FILL_AREA_STYLE ('',( #14 ) ) ;
#16 = EDGE_CURVE ( 'NONE', #210, #1, #141, .T. ) ;
#17 = CARTESIAN_POINT ( 'NONE',  ( 0.0000000000000000000, 2.590799999999999800, 1.586562416432775400E-016 ) ) ;
#18 =( NAMED_UNIT ( * ) PLANE_ANGLE_UNIT ( ) SI_UNIT ( $, .RADIAN. ) );
#19 = FACE_OUTER_BOUND ( 'NONE', #166, .T. ) ;
#20 = ORIENTED_EDGE ( 'NONE', *, *, #16, .T. ) ;
#21 = LINE ( 'NONE', #51, #190 ) ;
#22 =( GEOMETRIC_REPRESENTATION_CONTEXT ( 3 ) GLOBAL_UNCERTAINTY_ASSIGNED_CONTEXT ( ( #188 ) ) GLOBAL_UNIT_ASSIGNED_CONTEXT ( ( #4, #18, #85 ) ) REPRESENTATION_CONTEXT ( 'NONE', 'WORKASPACE' ) );
#23 = FACE_OUTER_BOUND ( 'NONE', #81, .T. ) ;
#24 = ORIENTED_EDGE ( 'NONE', *, *, #154, .T. ) ;
#25 = AXIS2_PLACEMENT_3D ( 'NONE', #131, #117, #194 ) ;
#26 = PRESENTATION_STYLE_ASSIGNMENT (( #103 ) ) ;
#27 = ORIENTED_EDGE ( 'NONE', *, *, #8, .T. ) ;
#28 = DIRECTION ( 'NONE',  ( 0.0000000000000000000, 1.000000000000000000, 0.0000000000000000000 ) ) ;
#29 = ORIENTED_EDGE ( 'NONE', *, *, #88, .F. ) ;
#30 = DIRECTION ( 'NONE',  ( 0.0000000000000000000, -0.9238795325112849600, 0.3826834323650938300 ) ) ;
#31 = AXIS2_PLACEMENT_3D ( 'NONE', #17, #178, #64 ) ;
#32 = CARTESIAN_POINT ( 'NONE',  ( 0.0000000000000000000, 2.072639999999986500, 1.586500435305858000E-016 ) ) ;
#33 = DIRECTION ( 'NONE',  ( -0.0000000000000000000, -1.196177376055253000E-020, 1.000000000000000000 ) ) ;
#34 = EDGE_LOOP ( 'NONE', ( #113, #153, #89, #201 ) ) ;
#35 = FILL_AREA_STYLE ('',( #203 ) ) ;
#36 = DIRECTION ( 'NONE',  ( 0.0000000000000000000, 1.196177376055253200E-020, -1.000000000000000000 ) ) ;
#37 = DIRECTION ( 'NONE',  ( 0.0000000000000000000, 1.000000000000000000, 1.196177376055305200E-020 ) ) ;
#38 = ORIENTED_EDGE ( 'NONE', *, *, #66, .F. ) ;
#39 = AXIS2_PLACEMENT_3D ( 'NONE', #169, #184, #37 ) ;
#40 = ORIENTED_EDGE ( 'NONE', *, *, #185, .F. ) ;
#41 = ORIENTED_EDGE ( 'NONE', *, *, #104, .T. ) ;
#42 = STYLED_ITEM ( 'NONE', ( #173 ), #98 ) ;
#43 = ORIENTED_EDGE ( 'NONE', *, *, #127, .F. ) ;
#44 = CIRCLE ( 'NONE', #180, 2.590800000000012200 ) ;
#45 = CARTESIAN_POINT ( 'NONE',  ( 2.855533434507862100E-016, -2.072639999999986500, 1.586004586290516400E-016 ) ) ;
#46 = CARTESIAN_POINT ( 'NONE',  ( 0.0000000000000000000, 1.152195662382864100E-018, -96.32314449739622800 ) ) ;
#47 = CARTESIAN_POINT ( 'NONE',  ( 0.0000000000000000000, -1.080957809816966600E-017, 903.6768555026037600 ) ) ;
#48 = SURFACE_STYLE_FILL_AREA ( #35 ) ;
#49 = CARTESIAN_POINT ( 'NONE',  ( 0.0000000000000000000, -2.590800000000006000, -3.099056345883956700E-020 ) ) ;
#50 = COLOUR_RGB ( '',0.7921568627450980000, 0.8196078431372548800, 0.9333333333333333500 ) ;
#51 = CARTESIAN_POINT ( 'NONE',  ( 2.538251941784754200E-016, -2.072639999999986500, 1.586004586290516400E-016 ) ) ;
#52 = AXIS2_PLACEMENT_3D ( 'NONE', #122, #181, #6 ) ;
#53 = VERTEX_POINT ( 'NONE', #46 ) ;
#54 = APPLICATION_PROTOCOL_DEFINITION ( 'draft international standard', 'automotive_design', 1998, #158 ) ;
#55 = LINE ( 'NONE', #49, #107 ) ;
#56 = PRODUCT_DEFINITION_CONTEXT ( 'detailed design', #158, 'design' ) ;
#57 = FACE_OUTER_BOUND ( 'NONE', #109, .T. ) ;
#58 =( LENGTH_UNIT ( ) NAMED_UNIT ( * ) SI_UNIT ( .MILLI., .METRE. ) );
#59 = VERTEX_POINT ( 'NONE', #45 ) ;
#60 = DIRECTION ( 'NONE',  ( 0.0000000000000000000, 1.000000000000000000, 1.196177376055305200E-020 ) ) ;
#61 = AXIS2_PLACEMENT_3D ( 'NONE', #170, #36, #168 ) ;
#62 = DIRECTION ( 'NONE',  ( 0.0000000000000000000, -1.000000000000000000, 0.0000000000000000000 ) ) ;
#63 = ADVANCED_FACE ( 'NONE', ( #7 ), #67, .T. ) ;
#64 = DIRECTION ( 'NONE',  ( 0.0000000000000000000, 1.000000000000000000, 1.196177376055253000E-020 ) ) ;
#65 = EDGE_LOOP ( 'NONE', ( #108, #41 ) ) ;
#66 = EDGE_CURVE ( 'NONE', #70, #172, #44, .T. ) ;
#67 = CONICAL_SURFACE ( 'NONE', #86, 2414.213562373064600, 1.178097245096168000 ) ;
#68 = CYLINDRICAL_SURFACE ( 'NONE', #136, 2.590800000000006000 ) ;
#69 = LINE ( 'NONE', #77, #110 ) ;
#70 = VERTEX_POINT ( 'NONE', #167 ) ;
#71 = PRODUCT_RELATED_PRODUCT_CATEGORY ( 'part', '', ( #145 ) ) ;
#72 = DIRECTION ( 'NONE',  ( 0.0000000000000000000, -1.000000000000000000, 0.0000000000000000000 ) ) ;
#73 = CYLINDRICAL_SURFACE ( 'NONE', #52, 2.590800000000006000 ) ;
#74 = ORIENTED_EDGE ( 'NONE', *, *, #198, .T. ) ;
#75 = EDGE_CURVE ( 'NONE', #125, #1, #174, .T. ) ;
#76 = CARTESIAN_POINT ( 'NONE',  ( 0.0000000000000000000, -1.080957809816966600E-017, 903.6768555026037600 ) ) ;
#77 = CARTESIAN_POINT ( 'NONE',  ( 0.0000000000000000000, 1.152195662382864100E-018, -96.32314449739622800 ) ) ;
#78 = ORIENTED_EDGE ( 'NONE', *, *, #138, .T. ) ;
#79 = DIRECTION ( 'NONE',  ( 0.0000000000000000000, 1.196177376055253200E-020, -1.000000000000000000 ) ) ;
#80 = CARTESIAN_POINT ( 'NONE',  ( 0.0000000000000000000, 1.152195662382864100E-018, -96.32314449739622800 ) ) ;
#81 = EDGE_LOOP ( 'NONE', ( #29, #187, #74, #20 ) ) ;
#82 = MECHANICAL_DESIGN_GEOMETRIC_PRESENTATION_REPRESENTATION (  '', ( #42 ), #152 ) ;
#83 = CARTESIAN_POINT ( 'NONE',  ( 0.0000000000000000000, -2.590800000000006000, -0.5181600000000135000 ) ) ;
#84 = VECTOR ( 'NONE', #160, 1000.000000000000100 ) ;
#85 =( NAMED_UNIT ( * ) SI_UNIT ( $, .STERADIAN. ) SOLID_ANGLE_UNIT ( ) );
#86 = AXIS2_PLACEMENT_3D ( 'NONE', #47, #176, #111 ) ;
#87 = CIRCLE ( 'NONE', #39, 2.072639999999986500 ) ;
#88 = EDGE_CURVE ( 'NONE', #172, #1, #130, .T. ) ;
#89 = ORIENTED_EDGE ( 'NONE', *, *, #154, .F. ) ;
#90 = PRODUCT_DEFINITION_SHAPE ( 'NONE', 'NONE',  #120 ) ;
#91 = STYLED_ITEM ( 'NONE', ( #26 ), #155 ) ;
#92 = CONICAL_SURFACE ( 'NONE', #9, 2414.213562373064600, 1.178097245096168000 ) ;
#93 = DIRECTION ( 'NONE',  ( -0.0000000000000000000, -1.196177376055253000E-020, 1.000000000000000000 ) ) ;
#94 = CARTESIAN_POINT ( 'NONE',  ( 0.0000000000000000000, 1.139358950692628600E-018, -95.25000000000000000 ) ) ;
#95 = PRESENTATION_LAYER_ASSIGNMENT (  '', '', ( #91 ) ) ;
#96 = DIRECTION ( 'NONE',  ( 0.0000000000000000000, -1.000000000000000000, -1.196177376055253000E-020 ) ) ;
#97 = CARTESIAN_POINT ( 'NONE',  ( 0.0000000000000000000, 6.198112691768060400E-021, -0.5181600000000135000 ) ) ;
#98 = MANIFOLD_SOLID_BREP ( '¸ðµû±â1', #207 ) ;
#99 = DIRECTION ( 'NONE',  ( 8.659560562354980900E-017, -0.7071067811865513500, -0.7071067811865435800 ) ) ;
#100 = EDGE_LOOP ( 'NONE', ( #159, #182, #24, #10 ) ) ;
#101 = AXIS2_PLACEMENT_3D ( 'NONE', #116, #114, #60 ) ;
#102 = CARTESIAN_POINT ( 'NONE',  ( 3.172814927230977800E-016, 2.590800000000012600, -95.25000000000000000 ) ) ;
#103 = SURFACE_STYLE_USAGE ( .BOTH. , #151 ) ;
#104 = EDGE_CURVE ( 'NONE', #59, #125, #177, .T. ) ;
#105 = FACE_OUTER_BOUND ( 'NONE', #100, .T. ) ;
#106 = MECHANICAL_DESIGN_GEOMETRIC_PRESENTATION_REPRESENTATION (  '', ( #91 ), #157 ) ;
#107 = VECTOR ( 'NONE', #149, 1000.000000000000000 ) ;
#108 = ORIENTED_EDGE ( 'NONE', *, *, #212, .T. ) ;
#109 = EDGE_LOOP ( 'NONE', ( #192, #78, #43 ) ) ;
#110 = VECTOR ( 'NONE', #193, 1000.000000000000100 ) ;
#111 = DIRECTION ( 'NONE',  ( 0.0000000000000000000, -1.000000000000000000, 0.0000000000000000000 ) ) ;
#112 = AXIS2_PLACEMENT_3D ( 'NONE', #146, #79, #213 ) ;
#113 = ORIENTED_EDGE ( 'NONE', *, *, #104, .F. ) ;
#114 = DIRECTION ( 'NONE',  ( -0.0000000000000000000, -1.196177376055253000E-020, 1.000000000000000000 ) ) ;
#115 = ADVANCED_FACE ( 'NONE', ( #19 ), #208, .T. ) ;
#116 = CARTESIAN_POINT ( 'NONE',  ( 0.0000000000000000000, -1.897439366127632900E-036, 1.586252510798187100E-016 ) ) ;
#117 = DIRECTION ( 'NONE',  ( 0.0000000000000000000, 1.196177376055253200E-020, -1.000000000000000000 ) ) ;
#118 =( NAMED_UNIT ( * ) SI_UNIT ( $, .STERADIAN. ) SOLID_ANGLE_UNIT ( ) );
#119 = FACE_OUTER_BOUND ( 'NONE', #34, .T. ) ;
#120 = PRODUCT_DEFINITION ( 'UNKNOWN', '', #147, #56 ) ;
#121 =( LENGTH_UNIT ( ) NAMED_UNIT ( * ) SI_UNIT ( .MILLI., .METRE. ) );
#122 = CARTESIAN_POINT ( 'NONE',  ( 0.0000000000000000000, 0.0000000000000000000, 0.0000000000000000000 ) ) ;
#123 = AXIS2_PLACEMENT_3D ( 'NONE', #202, #183, #128 ) ;
#124 = VECTOR ( 'NONE', #30, 1000.000000000000100 ) ;
#125 = VERTEX_POINT ( 'NONE', #32 ) ;
#126 = CARTESIAN_POINT ( 'NONE',  ( 3.172814927230969900E-016, 2.590800000000006000, -0.5181600000000135000 ) ) ;
#127 = EDGE_CURVE ( 'NONE', #172, #70, #206, .T. ) ;
#128 = DIRECTION ( 'NONE',  ( 1.000000000000000000, 0.0000000000000000000, 0.0000000000000000000 ) ) ;
#129 = DIRECTION ( 'NONE',  ( 0.0000000000000000000, 1.196177376055253200E-020, -1.000000000000000000 ) ) ;
#130 = LINE ( 'NONE', #133, #191 ) ;
#131 = CARTESIAN_POINT ( 'NONE',  ( 0.0000000000000000000, 6.198112691768060400E-021, -0.5181600000000135000 ) ) ;
#132 = ADVANCED_FACE ( 'NONE', ( #171 ), #144, .F. ) ;
#133 = CARTESIAN_POINT ( 'NONE',  ( 3.172814927230969900E-016, 2.590800000000006000, 3.099056345883956700E-020 ) ) ;
#134 =( NAMED_UNIT ( * ) PLANE_ANGLE_UNIT ( ) SI_UNIT ( $, .RADIAN. ) );
#135 =( NAMED_UNIT ( * ) SI_UNIT ( $, .STERADIAN. ) SOLID_ANGLE_UNIT ( ) );
#136 = AXIS2_PLACEMENT_3D ( 'NONE', #143, #197, #96 ) ;
#137 = EDGE_LOOP ( 'NONE', ( #148, #27, #38 ) ) ;
#138 = EDGE_CURVE ( 'NONE', #53, #70, #13, .T. ) ;
#139 = COLOUR_RGB ( '',0.7921568627450980000, 0.8196078431372548800, 0.9333333333333333500 ) ;
#140 = UNCERTAINTY_MEASURE_WITH_UNIT (LENGTH_MEASURE( 1.000000000000000100E-005 ), #121, 'distance_accuracy_value', 'NONE');
#141 = CIRCLE ( 'NONE', #25, 2.590800000000006000 ) ;
#142 = PRESENTATION_LAYER_ASSIGNMENT (  '', '', ( #42 ) ) ;
#143 = CARTESIAN_POINT ( 'NONE',  ( 0.0000000000000000000, 0.0000000000000000000, 0.0000000000000000000 ) ) ;
#144 = PLANE ( 'NONE',  #31 ) ;
#145 = PRODUCT ( '03-0289', '03-0289', '', ( #199 ) ) ;
#146 = CARTESIAN_POINT ( 'NONE',  ( 0.0000000000000000000, -1.897439366127632500E-036, 1.586252510798187100E-016 ) ) ;
#147 = PRODUCT_DEFINITION_FORMATION_WITH_SPECIFIED_SOURCE ( 'ANY', '', #145, .NOT_KNOWN. ) ;
#148 = ORIENTED_EDGE ( 'NONE', *, *, #138, .F. ) ;
#149 = DIRECTION ( 'NONE',  ( -0.0000000000000000000, -1.196177376055253000E-020, 1.000000000000000000 ) ) ;
#150 = UNCERTAINTY_MEASURE_WITH_UNIT (LENGTH_MEASURE( 1.000000000000000100E-005 ), #58, 'distance_accuracy_value', 'NONE');
#151 = SURFACE_SIDE_STYLE ('',( #48 ) ) ;
#152 =( GEOMETRIC_REPRESENTATION_CONTEXT ( 3 ) GLOBAL_UNCERTAINTY_ASSIGNED_CONTEXT ( ( #150 ) ) GLOBAL_UNIT_ASSIGNED_CONTEXT ( ( #58, #214, #118 ) ) REPRESENTATION_CONTEXT ( 'NONE', 'WORKASPACE' ) );
#153 = ORIENTED_EDGE ( 'NONE', *, *, #185, .T. ) ;
#154 = EDGE_CURVE ( 'NONE', #1, #210, #186, .T. ) ;
#155 = ADVANCED_BREP_SHAPE_REPRESENTATION ( '03-0289', ( #98, #123 ), #22 ) ;
#156 = ORIENTED_EDGE ( 'NONE', *, *, #16, .F. ) ;
#157 =( GEOMETRIC_REPRESENTATION_CONTEXT ( 3 ) GLOBAL_UNCERTAINTY_ASSIGNED_CONTEXT ( ( #140 ) ) GLOBAL_UNIT_ASSIGNED_CONTEXT ( ( #121, #134, #135 ) ) REPRESENTATION_CONTEXT ( 'NONE', 'WORKASPACE' ) );
#158 = APPLICATION_CONTEXT ( 'automotive_design' ) ;
#159 = ORIENTED_EDGE ( 'NONE', *, *, #66, .T. ) ;
#160 = DIRECTION ( 'NONE',  ( 0.0000000000000000000, 0.7071067811865513500, -0.7071067811865435800 ) ) ;
#161 = DIRECTION ( 'NONE',  ( -0.0000000000000000000, -1.196177376055253000E-020, 1.000000000000000000 ) ) ;
#162 = ADVANCED_FACE ( 'NONE', ( #105 ), #68, .T. ) ;
#163 = DIRECTION ( 'NONE',  ( 0.0000000000000000000, -1.000000000000000000, 0.0000000000000000000 ) ) ;
#164 = SURFACE_STYLE_USAGE ( .BOTH. , #11 ) ;
#165 = CONICAL_SURFACE ( 'NONE', #61, 2.072639999999986500, 0.7853981633974538300 ) ;
#166 = EDGE_LOOP ( 'NONE', ( #40, #209, #195, #156 ) ) ;
#167 = CARTESIAN_POINT ( 'NONE',  ( 0.0000000000000000000, -2.590800000000012600, -95.25000000000000000 ) ) ;
#168 = DIRECTION ( 'NONE',  ( 0.0000000000000000000, 1.000000000000000000, 1.196177376055305200E-020 ) ) ;
#169 = CARTESIAN_POINT ( 'NONE',  ( 0.0000000000000000000, -1.897439366127632900E-036, 1.586252510798187100E-016 ) ) ;
#170 = CARTESIAN_POINT ( 'NONE',  ( 0.0000000000000000000, -1.897439366127632500E-036, 1.586252510798187100E-016 ) ) ;
#171 = FACE_OUTER_BOUND ( 'NONE', #65, .T. ) ;
#172 = VERTEX_POINT ( 'NONE', #102 ) ;
#173 = PRESENTATION_STYLE_ASSIGNMENT (( #164 ) ) ;
#174 = LINE ( 'NONE', #196, #84 ) ;
#175 = SHAPE_DEFINITION_REPRESENTATION ( #90, #155 ) ;
#176 = DIRECTION ( 'NONE',  ( -0.0000000000000000000, -1.196177376055253000E-020, 1.000000000000000000 ) ) ;
#177 = CIRCLE ( 'NONE', #101, 2.072639999999986500 ) ;
#178 = DIRECTION ( 'NONE',  ( 0.0000000000000000000, 1.196177376055253000E-020, -1.000000000000000000 ) ) ;
#179 = ADVANCED_FACE ( 'NONE', ( #23 ), #73, .T. ) ;
#180 = AXIS2_PLACEMENT_3D ( 'NONE', #94, #33, #62 ) ;
#181 = DIRECTION ( 'NONE',  ( -0.0000000000000000000, -1.196177376055253000E-020, 1.000000000000000000 ) ) ;
#182 = ORIENTED_EDGE ( 'NONE', *, *, #88, .T. ) ;
#183 = DIRECTION ( 'NONE',  ( 0.0000000000000000000, 0.0000000000000000000, 1.000000000000000000 ) ) ;
#184 = DIRECTION ( 'NONE',  ( -0.0000000000000000000, -1.196177376055253000E-020, 1.000000000000000000 ) ) ;
#185 = EDGE_CURVE ( 'NONE', #59, #210, #21, .T. ) ;
#186 = CIRCLE ( 'NONE', #205, 2.590800000000006000 ) ;
#187 = ORIENTED_EDGE ( 'NONE', *, *, #127, .T. ) ;
#188 = UNCERTAINTY_MEASURE_WITH_UNIT (LENGTH_MEASURE( 1.000000000000000100E-005 ), #4, 'distance_accuracy_value', 'NONE');
#189 = AXIS2_PLACEMENT_3D ( 'NONE', #211, #2, #163 ) ;
#190 = VECTOR ( 'NONE', #99, 1000.000000000000100 ) ;
#191 = VECTOR ( 'NONE', #161, 1000.000000000000000 ) ;
#192 = ORIENTED_EDGE ( 'NONE', *, *, #8, .F. ) ;
#193 = DIRECTION ( 'NONE',  ( 1.131426112287698000E-016, 0.9238795325112849600, 0.3826834323650938300 ) ) ;
#194 = DIRECTION ( 'NONE',  ( 0.0000000000000000000, 1.000000000000000000, 0.0000000000000000000 ) ) ;
#195 = ORIENTED_EDGE ( 'NONE', *, *, #75, .T. ) ;
#196 = CARTESIAN_POINT ( 'NONE',  ( 0.0000000000000000000, 2.072639999999986500, 1.586500435305858000E-016 ) ) ;
#197 = DIRECTION ( 'NONE',  ( -0.0000000000000000000, -1.196177376055253000E-020, 1.000000000000000000 ) ) ;
#198 = EDGE_CURVE ( 'NONE', #70, #210, #55, .T. ) ;
#199 = PRODUCT_CONTEXT ( 'NONE', #204, 'mechanical' ) ;
#200 = ADVANCED_FACE ( 'NONE', ( #119 ), #165, .T. ) ;
#201 = ORIENTED_EDGE ( 'NONE', *, *, #75, .F. ) ;
#202 = CARTESIAN_POINT ( 'NONE',  ( 0.0000000000000000000, 0.0000000000000000000, 0.0000000000000000000 ) ) ;
#203 = FILL_AREA_STYLE_COLOUR ( '', #50 ) ;
#204 = APPLICATION_CONTEXT ( 'automotive_design' ) ;
#205 = AXIS2_PLACEMENT_3D ( 'NONE', #97, #129, #28 ) ;
#206 = CIRCLE ( 'NONE', #189, 2.590800000000012200 ) ;
#207 = CLOSED_SHELL ( 'NONE', ( #200, #162, #63, #132, #12, #179, #115 ) ) ;
#208 = CONICAL_SURFACE ( 'NONE', #112, 2.072639999999986500, 0.7853981633974538300 ) ;
#209 = ORIENTED_EDGE ( 'NONE', *, *, #212, .F. ) ;
#210 = VERTEX_POINT ( 'NONE', #83 ) ;
#211 = CARTESIAN_POINT ( 'NONE',  ( 0.0000000000000000000, 1.139358950692628600E-018, -95.25000000000000000 ) ) ;
#212 = EDGE_CURVE ( 'NONE', #125, #59, #87, .T. ) ;
#213 = DIRECTION ( 'NONE',  ( 0.0000000000000000000, 1.000000000000000000, 1.196177376055305200E-020 ) ) ;
#214 =( NAMED_UNIT ( * ) PLANE_ANGLE_UNIT ( ) SI_UNIT ( $, .RADIAN. ) );
ENDSEC;
END-ISO-10303-21;
