ISO-10303-21;
HEADER;
FILE_DESCRIPTION (( 'STEP AP214' ),
    '1' );
FILE_NAME ('03-0291.STEP',
    '2020-07-23T06:23:19',
    ( '' ),
    ( '' ),
    'SwSTEP 2.0',
    'SolidWorks 2014',
    '' );
FILE_SCHEMA (( 'AUTOMOTIVE_DESIGN' ));
ENDSEC;

DATA;
#1 = VERTEX_POINT ( 'NONE', #144 ) ;
#2 = DIRECTION ( 'NONE',  ( 0.0000000000000000000, 2.512298981759261800E-021, -1.000000000000000000 ) ) ;
#3 = CARTESIAN_POINT ( 'NONE',  ( 0.0000000000000000000, -2.278349073083435800E-018, 906.8781580638144500 ) ) ;
#4 = DIRECTION ( 'NONE',  ( 0.0000000000000000000, -1.000000000000000000, 0.0000000000000000000 ) ) ;
#5 = DIRECTION ( 'NONE',  ( 0.0000000000000000000, -1.000000000000000000, 0.0000000000000000000 ) ) ;
#6 = DIRECTION ( 'NONE',  ( 0.0000000000000000000, 1.000000000000000000, 0.0000000000000000000 ) ) ;
#7 = UNCERTAINTY_MEASURE_WITH_UNIT (LENGTH_MEASURE( 1.000000000000000100E-005 ), #191, 'distance_accuracy_value', 'NONE');
#8 =( GEOMETRIC_REPRESENTATION_CONTEXT ( 3 ) GLOBAL_UNCERTAINTY_ASSIGNED_CONTEXT ( ( #7 ) ) GLOBAL_UNIT_ASSIGNED_CONTEXT ( ( #191, #32, #139 ) ) REPRESENTATION_CONTEXT ( 'NONE', 'WORKASPACE' ) );
#9 = AXIS2_PLACEMENT_3D ( 'NONE', #130, #51, #89 ) ;
#10 = CIRCLE ( 'NONE', #111, 2.527300000000004800 ) ;
#11 = VECTOR ( 'NONE', #162, 1000.000000000000000 ) ;
#12 = MECHANICAL_DESIGN_GEOMETRIC_PRESENTATION_REPRESENTATION (  '', ( #66 ), #95 ) ;
#13 = DIRECTION ( 'NONE',  ( 1.000000000000000000, 0.0000000000000000000, 0.0000000000000000000 ) ) ;
#14 = VECTOR ( 'NONE', #182, 1000.000000000000000 ) ;
#15 = VECTOR ( 'NONE', #198, 1000.000000000000000 ) ;
#16 = LINE ( 'NONE', #118, #14 ) ;
#17 = DIRECTION ( 'NONE',  ( 8.659560562354855200E-017, -0.7071067811865411300, -0.7071067811865539000 ) ) ;
#18 = PRESENTATION_LAYER_ASSIGNMENT (  '', '', ( #126 ) ) ;
#19 = DIRECTION ( 'NONE',  ( 0.0000000000000000000, 1.000000000000000000, 2.512298981761613900E-021 ) ) ;
#20 = UNCERTAINTY_MEASURE_WITH_UNIT (LENGTH_MEASURE( 1.000000000000000100E-005 ), #83, 'distance_accuracy_value', 'NONE');
#21 = DIRECTION ( 'NONE',  ( 0.0000000000000000000, 2.512298981759261800E-021, -1.000000000000000000 ) ) ;
#22 = AXIS2_PLACEMENT_3D ( 'NONE', #25, #21, #6 ) ;
#23 = ORIENTED_EDGE ( 'NONE', *, *, #194, .F. ) ;
#24 = CARTESIAN_POINT ( 'NONE',  ( 3.095049855485111500E-016, 2.527300000000004800, -0.5054600000000030200 ) ) ;
#25 = CARTESIAN_POINT ( 'NONE',  ( 0.0000000000000000000, 1.269866643320044000E-021, -0.5054600000000030200 ) ) ;
#26 = CYLINDRICAL_SURFACE ( 'NONE', #9, 2.527300000000004800 ) ;
#27 = ORIENTED_EDGE ( 'NONE', *, *, #48, .T. ) ;
#28 = EDGE_CURVE ( 'NONE', #155, #207, #60, .T. ) ;
#29 = ADVANCED_FACE ( 'NONE', ( #74 ), #57, .T. ) ;
#30 = MECHANICAL_DESIGN_GEOMETRIC_PRESENTATION_REPRESENTATION (  '', ( #126 ), #42 ) ;
#31 = EDGE_LOOP ( 'NONE', ( #119, #37, #193, #112 ) ) ;
#32 =( NAMED_UNIT ( * ) PLANE_ANGLE_UNIT ( ) SI_UNIT ( $, .RADIAN. ) );
#33 = AXIS2_PLACEMENT_3D ( 'NONE', #3, #38, #75 ) ;
#34 = DIRECTION ( 'NONE',  ( 0.0000000000000000000, -1.000000000000000000, 0.0000000000000000000 ) ) ;
#35 = ORIENTED_EDGE ( 'NONE', *, *, #159, .F. ) ;
#36 =( NAMED_UNIT ( * ) PLANE_ANGLE_UNIT ( ) SI_UNIT ( $, .RADIAN. ) );
#37 = ORIENTED_EDGE ( 'NONE', *, *, #62, .F. ) ;
#38 = DIRECTION ( 'NONE',  ( -0.0000000000000000000, -2.512298981759261400E-021, 1.000000000000000000 ) ) ;
#39 = EDGE_CURVE ( 'NONE', #92, #1, #81, .T. ) ;
#40 = ORIENTED_EDGE ( 'NONE', *, *, #62, .T. ) ;
#41 = ORIENTED_EDGE ( 'NONE', *, *, #185, .T. ) ;
#42 =( GEOMETRIC_REPRESENTATION_CONTEXT ( 3 ) GLOBAL_UNCERTAINTY_ASSIGNED_CONTEXT ( ( #20 ) ) GLOBAL_UNIT_ASSIGNED_CONTEXT ( ( #83, #154, #84 ) ) REPRESENTATION_CONTEXT ( 'NONE', 'WORKASPACE' ) );
#43 = EDGE_CURVE ( 'NONE', #92, #151, #140, .T. ) ;
#44 = EDGE_LOOP ( 'NONE', ( #165, #76, #161 ) ) ;
#45 = MANIFOLD_SOLID_BREP ( '¸ðµû±â1', #88 ) ;
#46 = ORIENTED_EDGE ( 'NONE', *, *, #194, .T. ) ;
#47 = DIRECTION ( 'NONE',  ( 0.0000000000000000000, 1.000000000000000000, 2.512298981761613900E-021 ) ) ;
#48 = EDGE_CURVE ( 'NONE', #155, #79, #98, .T. ) ;
#49 = CARTESIAN_POINT ( 'NONE',  ( 0.0000000000000000000, 2.339499086758257800E-019, -93.12184193618553300 ) ) ;
#50 = CARTESIAN_POINT ( 'NONE',  ( 0.0000000000000000000, -3.887765543097814600E-037, 1.547493181076469300E-016 ) ) ;
#51 = DIRECTION ( 'NONE',  ( -0.0000000000000000000, -2.512298981759261400E-021, 1.000000000000000000 ) ) ;
#52 = LINE ( 'NONE', #147, #192 ) ;
#53 = DIRECTION ( 'NONE',  ( -0.0000000000000000000, -2.512298981759261400E-021, 1.000000000000000000 ) ) ;
#54 = DIRECTION ( 'NONE',  ( -0.0000000000000000000, -2.512298981759261400E-021, 1.000000000000000000 ) ) ;
#55 = CIRCLE ( 'NONE', #91, 2.527300000000010500 ) ;
#56 = CARTESIAN_POINT ( 'NONE',  ( 0.0000000000000000000, 2.021840000000010700, 1.547543975742202200E-016 ) ) ;
#57 = CONICAL_SURFACE ( 'NONE', #170, 2414.213562373069200, 1.178097245096168600 ) ;
#58 = DIRECTION ( 'NONE',  ( 0.0000000000000000000, 1.000000000000000000, 0.0000000000000000000 ) ) ;
#59 = CIRCLE ( 'NONE', #22, 2.527300000000004800 ) ;
#60 = CIRCLE ( 'NONE', #80, 2.021840000000010700 ) ;
#61 = ADVANCED_FACE ( 'NONE', ( #188 ), #102, .F. ) ;
#62 = EDGE_CURVE ( 'NONE', #207, #155, #73, .T. ) ;
#63 = APPLICATION_CONTEXT ( 'automotive_design' ) ;
#64 = SHAPE_DEFINITION_REPRESENTATION ( #157, #176 ) ;
#65 = ORIENTED_EDGE ( 'NONE', *, *, #28, .F. ) ;
#66 = STYLED_ITEM ( 'NONE', ( #152 ), #45 ) ;
#67 = APPLICATION_PROTOCOL_DEFINITION ( 'draft international standard', 'automotive_design', 1998, #171 ) ;
#68 = FILL_AREA_STYLE_COLOUR ( '', #186 ) ;
#69 = ORIENTED_EDGE ( 'NONE', *, *, #167, .F. ) ;
#70 = DIRECTION ( 'NONE',  ( -0.0000000000000000000, -2.512298981759261400E-021, 1.000000000000000000 ) ) ;
#71 = CARTESIAN_POINT ( 'NONE',  ( 0.0000000000000000000, -2.527300000000004800, -0.5054600000000030200 ) ) ;
#72 = DIRECTION ( 'NONE',  ( 0.0000000000000000000, 1.000000000000000000, 2.512298981759261400E-021 ) ) ;
#73 = CIRCLE ( 'NONE', #103, 2.021840000000010700 ) ;
#74 = FACE_OUTER_BOUND ( 'NONE', #44, .T. ) ;
#75 = DIRECTION ( 'NONE',  ( 0.0000000000000000000, -1.000000000000000000, 0.0000000000000000000 ) ) ;
#76 = ORIENTED_EDGE ( 'NONE', *, *, #39, .T. ) ;
#77 = VECTOR ( 'NONE', #17, 1000.000000000000000 ) ;
#78 = AXIS2_PLACEMENT_3D ( 'NONE', #213, #2, #160 ) ;
#79 = VERTEX_POINT ( 'NONE', #71 ) ;
#80 = AXIS2_PLACEMENT_3D ( 'NONE', #50, #53, #104 ) ;
#81 = LINE ( 'NONE', #142, #11 ) ;
#82 = ADVANCED_FACE ( 'NONE', ( #143 ), #26, .T. ) ;
#83 =( LENGTH_UNIT ( ) NAMED_UNIT ( * ) SI_UNIT ( .MILLI., .METRE. ) );
#84 =( NAMED_UNIT ( * ) SI_UNIT ( $, .STERADIAN. ) SOLID_ANGLE_UNIT ( ) );
#85 = EDGE_LOOP ( 'NONE', ( #40, #210 ) ) ;
#86 = DIRECTION ( 'NONE',  ( -0.0000000000000000000, -2.512298981759261400E-021, 1.000000000000000000 ) ) ;
#87 = FILL_AREA_STYLE_COLOUR ( '', #100 ) ;
#88 = CLOSED_SHELL ( 'NONE', ( #208, #82, #189, #61, #29, #166, #96 ) ) ;
#89 = DIRECTION ( 'NONE',  ( 0.0000000000000000000, -1.000000000000000000, -2.512298981759261400E-021 ) ) ;
#90 = CARTESIAN_POINT ( 'NONE',  ( 0.0000000000000000000, 2.313199287454839500E-019, -92.07499999999998900 ) ) ;
#91 = AXIS2_PLACEMENT_3D ( 'NONE', #90, #54, #4 ) ;
#92 = VERTEX_POINT ( 'NONE', #179 ) ;
#93 = EDGE_CURVE ( 'NONE', #196, #79, #59, .T. ) ;
#94 = CYLINDRICAL_SURFACE ( 'NONE', #131, 2.527300000000004800 ) ;
#95 =( GEOMETRIC_REPRESENTATION_CONTEXT ( 3 ) GLOBAL_UNCERTAINTY_ASSIGNED_CONTEXT ( ( #97 ) ) GLOBAL_UNIT_ASSIGNED_CONTEXT ( ( #195, #36, #115 ) ) REPRESENTATION_CONTEXT ( 'NONE', 'WORKASPACE' ) );
#96 = ADVANCED_FACE ( 'NONE', ( #187 ), #178, .T. ) ;
#97 = UNCERTAINTY_MEASURE_WITH_UNIT (LENGTH_MEASURE( 1.000000000000000100E-005 ), #195, 'distance_accuracy_value', 'NONE');
#98 = LINE ( 'NONE', #181, #77 ) ;
#99 = EDGE_CURVE ( 'NONE', #151, #1, #55, .T. ) ;
#100 = COLOUR_RGB ( '',0.7921568627450980000, 0.8196078431372548800, 0.9333333333333333500 ) ;
#101 = DIRECTION ( 'NONE',  ( 0.0000000000000000000, 0.0000000000000000000, 1.000000000000000000 ) ) ;
#102 = PLANE ( 'NONE',  #209 ) ;
#103 = AXIS2_PLACEMENT_3D ( 'NONE', #180, #86, #19 ) ;
#104 = DIRECTION ( 'NONE',  ( 0.0000000000000000000, 1.000000000000000000, 2.512298981761613900E-021 ) ) ;
#105 = DIRECTION ( 'NONE',  ( 0.0000000000000000000, 2.512298981759261400E-021, -1.000000000000000000 ) ) ;
#106 = FACE_OUTER_BOUND ( 'NONE', #124, .T. ) ;
#107 = CARTESIAN_POINT ( 'NONE',  ( 0.0000000000000000000, 2.021840000000010700, 1.547543975742202200E-016 ) ) ;
#108 = EDGE_LOOP ( 'NONE', ( #168, #199, #114 ) ) ;
#109 = DIRECTION ( 'NONE',  ( -0.0000000000000000000, -2.512298981759261400E-021, 1.000000000000000000 ) ) ;
#110 = CIRCLE ( 'NONE', #121, 2.527300000000010500 ) ;
#111 = AXIS2_PLACEMENT_3D ( 'NONE', #184, #148, #58 ) ;
#112 = ORIENTED_EDGE ( 'NONE', *, *, #175, .F. ) ;
#113 = ORIENTED_EDGE ( 'NONE', *, *, #93, .F. ) ;
#114 = ORIENTED_EDGE ( 'NONE', *, *, #185, .F. ) ;
#115 =( NAMED_UNIT ( * ) SI_UNIT ( $, .STERADIAN. ) SOLID_ANGLE_UNIT ( ) );
#116 = CARTESIAN_POINT ( 'NONE',  ( 0.0000000000000000000, 2.313199287454839500E-019, -92.07499999999998900 ) ) ;
#117 = DIRECTION ( 'NONE',  ( 0.0000000000000000000, 2.512298981759261800E-021, -1.000000000000000000 ) ) ;
#118 = CARTESIAN_POINT ( 'NONE',  ( 3.095049855485111500E-016, 2.527300000000004800, 6.349333216600193200E-021 ) ) ;
#119 = ORIENTED_EDGE ( 'NONE', *, *, #48, .F. ) ;
#120 = PRODUCT ( '03-0291', '03-0291', '', ( #158 ) ) ;
#121 = AXIS2_PLACEMENT_3D ( 'NONE', #116, #109, #5 ) ;
#122 = ORIENTED_EDGE ( 'NONE', *, *, #175, .T. ) ;
#123 = PRESENTATION_LAYER_ASSIGNMENT (  '', '', ( #66 ) ) ;
#124 = EDGE_LOOP ( 'NONE', ( #23, #203, #129, #122 ) ) ;
#125 = SURFACE_STYLE_USAGE ( .BOTH. , #172 ) ;
#126 = STYLED_ITEM ( 'NONE', ( #128 ), #176 ) ;
#127 = CARTESIAN_POINT ( 'NONE',  ( 0.0000000000000000000, 0.0000000000000000000, 0.0000000000000000000 ) ) ;
#128 = PRESENTATION_STYLE_ASSIGNMENT (( #125 ) ) ;
#129 = ORIENTED_EDGE ( 'NONE', *, *, #167, .T. ) ;
#130 = CARTESIAN_POINT ( 'NONE',  ( 0.0000000000000000000, 0.0000000000000000000, 0.0000000000000000000 ) ) ;
#131 = AXIS2_PLACEMENT_3D ( 'NONE', #134, #146, #163 ) ;
#132 = SURFACE_STYLE_USAGE ( .BOTH. , #197 ) ;
#133 = CARTESIAN_POINT ( 'NONE',  ( 0.0000000000000000000, 2.527299999999999900, 1.547556674408635300E-016 ) ) ;
#134 = CARTESIAN_POINT ( 'NONE',  ( 0.0000000000000000000, 0.0000000000000000000, 0.0000000000000000000 ) ) ;
#135 = FACE_OUTER_BOUND ( 'NONE', #212, .T. ) ;
#136 = DIRECTION ( 'NONE',  ( -0.0000000000000000000, -2.512298981759261400E-021, 1.000000000000000000 ) ) ;
#137 = PRODUCT_DEFINITION ( 'UNKNOWN', '', #190, #205 ) ;
#138 = AXIS2_PLACEMENT_3D ( 'NONE', #201, #117, #47 ) ;
#139 =( NAMED_UNIT ( * ) SI_UNIT ( $, .STERADIAN. ) SOLID_ANGLE_UNIT ( ) );
#140 = LINE ( 'NONE', #49, #15 ) ;
#141 = FILL_AREA_STYLE ('',( #68 ) ) ;
#142 = CARTESIAN_POINT ( 'NONE',  ( 0.0000000000000000000, 2.339499086758257800E-019, -93.12184193618553300 ) ) ;
#143 = FACE_OUTER_BOUND ( 'NONE', #183, .T. ) ;
#144 = CARTESIAN_POINT ( 'NONE',  ( 0.0000000000000000000, -2.527300000000010100, -92.07499999999998900 ) ) ;
#145 = FACE_OUTER_BOUND ( 'NONE', #108, .T. ) ;
#146 = DIRECTION ( 'NONE',  ( -0.0000000000000000000, -2.512298981759261400E-021, 1.000000000000000000 ) ) ;
#147 = CARTESIAN_POINT ( 'NONE',  ( 0.0000000000000000000, -2.527300000000004800, -6.349333216600193200E-021 ) ) ;
#148 = DIRECTION ( 'NONE',  ( 0.0000000000000000000, 2.512298981759261800E-021, -1.000000000000000000 ) ) ;
#149 = ORIENTED_EDGE ( 'NONE', *, *, #93, .T. ) ;
#150 = CONICAL_SURFACE ( 'NONE', #138, 2.021840000000010700, 0.7853981633974392900 ) ;
#151 = VERTEX_POINT ( 'NONE', #164 ) ;
#152 = PRESENTATION_STYLE_ASSIGNMENT (( #132 ) ) ;
#153 = APPLICATION_PROTOCOL_DEFINITION ( 'draft international standard', 'automotive_design', 1998, #63 ) ;
#154 =( NAMED_UNIT ( * ) PLANE_ANGLE_UNIT ( ) SI_UNIT ( $, .RADIAN. ) );
#155 = VERTEX_POINT ( 'NONE', #200 ) ;
#156 = CARTESIAN_POINT ( 'NONE',  ( 0.0000000000000000000, -2.278349073083435800E-018, 906.8781580638144500 ) ) ;
#157 = PRODUCT_DEFINITION_SHAPE ( 'NONE', 'NONE',  #137 ) ;
#158 = PRODUCT_CONTEXT ( 'NONE', #171, 'mechanical' ) ;
#159 = EDGE_CURVE ( 'NONE', #207, #196, #206, .T. ) ;
#160 = DIRECTION ( 'NONE',  ( 0.0000000000000000000, 1.000000000000000000, 2.512298981761613900E-021 ) ) ;
#161 = ORIENTED_EDGE ( 'NONE', *, *, #99, .F. ) ;
#162 = DIRECTION ( 'NONE',  ( 0.0000000000000000000, -0.9238795325112853000, 0.3826834323650932800 ) ) ;
#163 = DIRECTION ( 'NONE',  ( 0.0000000000000000000, -1.000000000000000000, -2.512298981759261400E-021 ) ) ;
#164 = CARTESIAN_POINT ( 'NONE',  ( 3.095049855485117900E-016, 2.527300000000010100, -92.07499999999998900 ) ) ;
#165 = ORIENTED_EDGE ( 'NONE', *, *, #43, .F. ) ;
#166 = ADVANCED_FACE ( 'NONE', ( #106 ), #94, .T. ) ;
#167 = EDGE_CURVE ( 'NONE', #1, #79, #52, .T. ) ;
#168 = ORIENTED_EDGE ( 'NONE', *, *, #39, .F. ) ;
#169 = SURFACE_STYLE_FILL_AREA ( #141 ) ;
#170 = AXIS2_PLACEMENT_3D ( 'NONE', #156, #70, #34 ) ;
#171 = APPLICATION_CONTEXT ( 'automotive_design' ) ;
#172 = SURFACE_SIDE_STYLE ('',( #169 ) ) ;
#173 = CONICAL_SURFACE ( 'NONE', #33, 2414.213562373069200, 1.178097245096168600 ) ;
#174 = SURFACE_STYLE_FILL_AREA ( #177 ) ;
#175 = EDGE_CURVE ( 'NONE', #79, #196, #10, .T. ) ;
#176 = ADVANCED_BREP_SHAPE_REPRESENTATION ( '03-0291', ( #45, #211 ), #8 ) ;
#177 = FILL_AREA_STYLE ('',( #87 ) ) ;
#178 = CONICAL_SURFACE ( 'NONE', #78, 2.021840000000010700, 0.7853981633974392900 ) ;
#179 = CARTESIAN_POINT ( 'NONE',  ( 0.0000000000000000000, 2.339499086758257800E-019, -93.12184193618553300 ) ) ;
#180 = CARTESIAN_POINT ( 'NONE',  ( 0.0000000000000000000, -3.887765543097814600E-037, 1.547493181076469300E-016 ) ) ;
#181 = CARTESIAN_POINT ( 'NONE',  ( 2.476039884388097500E-016, -2.021840000000010700, 1.547442386410736400E-016 ) ) ;
#182 = DIRECTION ( 'NONE',  ( -0.0000000000000000000, -2.512298981759261400E-021, 1.000000000000000000 ) ) ;
#183 = EDGE_LOOP ( 'NONE', ( #41, #46, #149, #69 ) ) ;
#184 = CARTESIAN_POINT ( 'NONE',  ( 0.0000000000000000000, 1.269866643320044000E-021, -0.5054600000000030200 ) ) ;
#185 = EDGE_CURVE ( 'NONE', #1, #151, #110, .T. ) ;
#186 = COLOUR_RGB ( '',0.7921568627450980000, 0.8196078431372548800, 0.9333333333333333500 ) ;
#187 = FACE_OUTER_BOUND ( 'NONE', #31, .T. ) ;
#188 = FACE_OUTER_BOUND ( 'NONE', #85, .T. ) ;
#189 = ADVANCED_FACE ( 'NONE', ( #145 ), #173, .T. ) ;
#190 = PRODUCT_DEFINITION_FORMATION_WITH_SPECIFIED_SOURCE ( 'ANY', '', #120, .NOT_KNOWN. ) ;
#191 =( LENGTH_UNIT ( ) NAMED_UNIT ( * ) SI_UNIT ( .MILLI., .METRE. ) );
#192 = VECTOR ( 'NONE', #136, 1000.000000000000000 ) ;
#193 = ORIENTED_EDGE ( 'NONE', *, *, #159, .T. ) ;
#194 = EDGE_CURVE ( 'NONE', #151, #196, #16, .T. ) ;
#195 =( LENGTH_UNIT ( ) NAMED_UNIT ( * ) SI_UNIT ( .MILLI., .METRE. ) );
#196 = VERTEX_POINT ( 'NONE', #24 ) ;
#197 = SURFACE_SIDE_STYLE ('',( #174 ) ) ;
#198 = DIRECTION ( 'NONE',  ( 1.131426112287698500E-016, 0.9238795325112853000, 0.3826834323650932800 ) ) ;
#199 = ORIENTED_EDGE ( 'NONE', *, *, #43, .T. ) ;
#200 = CARTESIAN_POINT ( 'NONE',  ( 2.785544869936604500E-016, -2.021840000000010700, 1.547442386410736400E-016 ) ) ;
#201 = CARTESIAN_POINT ( 'NONE',  ( 0.0000000000000000000, -3.887765543097814600E-037, 1.547493181076469300E-016 ) ) ;
#202 = DIRECTION ( 'NONE',  ( 0.0000000000000000000, 0.7071067811865411300, -0.7071067811865539000 ) ) ;
#203 = ORIENTED_EDGE ( 'NONE', *, *, #99, .T. ) ;
#204 = PRODUCT_RELATED_PRODUCT_CATEGORY ( 'part', '', ( #120 ) ) ;
#205 = PRODUCT_DEFINITION_CONTEXT ( 'detailed design', #63, 'design' ) ;
#206 = LINE ( 'NONE', #56, #214 ) ;
#207 = VERTEX_POINT ( 'NONE', #107 ) ;
#208 = ADVANCED_FACE ( 'NONE', ( #135 ), #150, .T. ) ;
#209 = AXIS2_PLACEMENT_3D ( 'NONE', #133, #105, #72 ) ;
#210 = ORIENTED_EDGE ( 'NONE', *, *, #28, .T. ) ;
#211 = AXIS2_PLACEMENT_3D ( 'NONE', #127, #101, #13 ) ;
#212 = EDGE_LOOP ( 'NONE', ( #65, #27, #113, #35 ) ) ;
#213 = CARTESIAN_POINT ( 'NONE',  ( 0.0000000000000000000, -3.887765543097814600E-037, 1.547493181076469300E-016 ) ) ;
#214 = VECTOR ( 'NONE', #202, 1000.000000000000000 ) ;
ENDSEC;
END-ISO-10303-21;
