ISO-10303-21;
HEADER;
FILE_DESCRIPTION (( 'STEP AP214' ),
    '1' );
FILE_NAME ('03-0294.STEP',
    '2020-07-23T06:25:22',
    ( '' ),
    ( '' ),
    'SwSTEP 2.0',
    'SolidWorks 2014',
    '' );
FILE_SCHEMA (( 'AUTOMOTIVE_DESIGN' ));
ENDSEC;

DATA;
#1 = STYLED_ITEM ( 'NONE', ( #178 ), #159 ) ;
#2 = FACE_OUTER_BOUND ( 'NONE', #125, .T. ) ;
#3 = ORIENTED_EDGE ( 'NONE', *, *, #136, .T. ) ;
#4 = AXIS2_PLACEMENT_3D ( 'NONE', #155, #194, #5 ) ;
#5 = DIRECTION ( 'NONE',  ( 1.000000000000000000, 0.0000000000000000000, 0.0000000000000000000 ) ) ;
#6 = CARTESIAN_POINT ( 'NONE',  ( 0.0000000000000000000, -1.271006647460617900E-020, -0.4851400000000065700 ) ) ;
#7 = DIRECTION ( 'NONE',  ( -0.0000000000000000000, 2.619876009936514600E-020, 1.000000000000000000 ) ) ;
#8 = EDGE_LOOP ( 'NONE', ( #114, #3, #72 ) ) ;
#9 = APPLICATION_PROTOCOL_DEFINITION ( 'draft international standard', 'automotive_design', 1998, #153 ) ;
#10 = CARTESIAN_POINT ( 'NONE',  ( 0.0000000000000000000, 0.0000000000000000000, 0.0000000000000000000 ) ) ;
#11 = FACE_OUTER_BOUND ( 'NONE', #85, .T. ) ;
#12 = DIRECTION ( 'NONE',  ( 0.0000000000000000000, 1.000000000000000000, -2.619876009936896100E-020 ) ) ;
#13 = DIRECTION ( 'NONE',  ( 0.0000000000000000000, -1.000000000000000000, 0.0000000000000000000 ) ) ;
#14 = MECHANICAL_DESIGN_GEOMETRIC_PRESENTATION_REPRESENTATION (  '', ( #1 ), #29 ) ;
#15 = CONICAL_SURFACE ( 'NONE', #73, 2414.213562373088700, 1.178097245096171500 ) ;
#16 = ADVANCED_FACE ( 'NONE', ( #11 ), #206, .F. ) ;
#17 = EDGE_CURVE ( 'NONE', #80, #144, #132, .T. ) ;
#18 = ORIENTED_EDGE ( 'NONE', *, *, #94, .F. ) ;
#19 = DIRECTION ( 'NONE',  ( -0.0000000000000000000, 2.619876009936514600E-020, 1.000000000000000000 ) ) ;
#20 = FILL_AREA_STYLE_COLOUR ( '', #213 ) ;
#21 = DIRECTION ( 'NONE',  ( 0.0000000000000000000, 1.000000000000000000, 0.0000000000000000000 ) ) ;
#22 =( NAMED_UNIT ( * ) PLANE_ANGLE_UNIT ( ) SI_UNIT ( $, .RADIAN. ) );
#23 = CIRCLE ( 'NONE', #124, 2.425700000000011100 ) ;
#24 = CARTESIAN_POINT ( 'NONE',  ( 0.0000000000000000000, 1.940559999999993800, 1.485122219348747600E-016 ) ) ;
#25 = SHAPE_DEFINITION_REPRESENTATION ( #212, #159 ) ;
#26 = AXIS2_PLACEMENT_3D ( 'NONE', #151, #110, #69 ) ;
#27 = CARTESIAN_POINT ( 'NONE',  ( 0.0000000000000000000, 3.892168026225118900E-036, 1.485630622007732100E-016 ) ) ;
#28 = VECTOR ( 'NONE', #7, 1000.000000000000000 ) ;
#29 =( GEOMETRIC_REPRESENTATION_CONTEXT ( 3 ) GLOBAL_UNCERTAINTY_ASSIGNED_CONTEXT ( ( #74 ) ) GLOBAL_UNIT_ASSIGNED_CONTEXT ( ( #171, #22, #135 ) ) REPRESENTATION_CONTEXT ( 'NONE', 'WORKASPACE' ) );
#30 = VECTOR ( 'NONE', #71, 999.9999999999998900 ) ;
#31 = CIRCLE ( 'NONE', #185, 1.940559999999993800 ) ;
#32 = VERTEX_POINT ( 'NONE', #192 ) ;
#33 = CONICAL_SURFACE ( 'NONE', #140, 1.940559999999993800, 0.7853981633974532800 ) ;
#34 = MECHANICAL_DESIGN_GEOMETRIC_PRESENTATION_REPRESENTATION (  '', ( #83 ), #112 ) ;
#35 = SURFACE_STYLE_FILL_AREA ( #36 ) ;
#36 = FILL_AREA_STYLE ('',( #20 ) ) ;
#37 = DIRECTION ( 'NONE',  ( 0.0000000000000000000, 1.000000000000000000, -2.619876009936896100E-020 ) ) ;
#38 = AXIS2_PLACEMENT_3D ( 'NONE', #137, #115, #149 ) ;
#39 = SURFACE_SIDE_STYLE ('',( #201 ) ) ;
#40 = DIRECTION ( 'NONE',  ( -0.0000000000000000000, 2.619876009936514600E-020, 1.000000000000000000 ) ) ;
#41 = PRODUCT ( '03-0294', '03-0294', '', ( #58 ) ) ;
#42 = CARTESIAN_POINT ( 'NONE',  ( 4.606609261280993000E-050, -2.355393182395787900E-018, -89.90475783824841500 ) ) ;
#43 = CARTESIAN_POINT ( 'NONE',  ( 2.673563166622560900E-016, -1.940559999999993800, 1.486139024666716400E-016 ) ) ;
#44 = ORIENTED_EDGE ( 'NONE', *, *, #64, .T. ) ;
#45 = DIRECTION ( 'NONE',  ( 8.659560562354977200E-017, -0.7071067811865510100, -0.7071067811865441300 ) ) ;
#46 = EDGE_CURVE ( 'NONE', #119, #32, #31, .T. ) ;
#47 = CIRCLE ( 'NONE', #148, 2.425700000000011100 ) ;
#48 = ADVANCED_FACE ( 'NONE', ( #50 ), #127, .T. ) ;
#49 = FACE_OUTER_BOUND ( 'NONE', #122, .T. ) ;
#50 = FACE_OUTER_BOUND ( 'NONE', #165, .T. ) ;
#51 = VECTOR ( 'NONE', #60, 999.9999999999998900 ) ;
#52 = ORIENTED_EDGE ( 'NONE', *, *, #17, .T. ) ;
#53 = EDGE_CURVE ( 'NONE', #214, #128, #47, .T. ) ;
#54 = DIRECTION ( 'NONE',  ( -0.0000000000000000000, 2.619876009936514600E-020, 1.000000000000000000 ) ) ;
#55 = SURFACE_SIDE_STYLE ('',( #35 ) ) ;
#56 = ORIENTED_EDGE ( 'NONE', *, *, #187, .T. ) ;
#57 = CARTESIAN_POINT ( 'NONE',  ( 0.0000000000000000000, -2.329069772833561100E-018, -88.89999999999999100 ) ) ;
#58 = PRODUCT_CONTEXT ( 'NONE', #153, 'mechanical' ) ;
#59 = DIRECTION ( 'NONE',  ( -0.0000000000000000000, 2.619876009936514600E-020, 1.000000000000000000 ) ) ;
#60 = DIRECTION ( 'NONE',  ( 0.0000000000000000000, 0.7071067811865510100, -0.7071067811865441300 ) ) ;
#61 = DIRECTION ( 'NONE',  ( 0.0000000000000000000, -1.000000000000000000, 0.0000000000000000000 ) ) ;
#62 = EDGE_CURVE ( 'NONE', #32, #119, #66, .T. ) ;
#63 = PRESENTATION_STYLE_ASSIGNMENT (( #152 ) ) ;
#64 = EDGE_CURVE ( 'NONE', #214, #80, #107, .T. ) ;
#65 = CYLINDRICAL_SURFACE ( 'NONE', #202, 2.425700000000005300 ) ;
#66 = CIRCLE ( 'NONE', #38, 1.940559999999993800 ) ;
#67 = CARTESIAN_POINT ( 'NONE',  ( 0.0000000000000000000, 3.892168026225118900E-036, 1.485630622007732100E-016 ) ) ;
#68 = COLOUR_RGB ( '',0.7921568627450980000, 0.8196078431372548800, 0.9333333333333333500 ) ;
#69 = DIRECTION ( 'NONE',  ( 0.0000000000000000000, 1.000000000000000000, -2.619876009936514600E-020 ) ) ;
#70 = APPLICATION_CONTEXT ( 'automotive_design' ) ;
#71 = DIRECTION ( 'NONE',  ( 1.131426112287700300E-016, 0.9238795325112865200, 0.3826834323650906100 ) ) ;
#72 = ORIENTED_EDGE ( 'NONE', *, *, #93, .F. ) ;
#73 = AXIS2_PLACEMENT_3D ( 'NONE', #133, #19, #134 ) ;
#74 = UNCERTAINTY_MEASURE_WITH_UNIT (LENGTH_MEASURE( 1.000000000000000100E-005 ), #171, 'distance_accuracy_value', 'NONE');
#75 = VECTOR ( 'NONE', #45, 999.9999999999998900 ) ;
#76 = ADVANCED_FACE ( 'NONE', ( #2 ), #15, .T. ) ;
#77 = ORIENTED_EDGE ( 'NONE', *, *, #182, .T. ) ;
#78 = ORIENTED_EDGE ( 'NONE', *, *, #62, .F. ) ;
#79 = LINE ( 'NONE', #195, #75 ) ;
#80 = VERTEX_POINT ( 'NONE', #130 ) ;
#81 = CARTESIAN_POINT ( 'NONE',  ( 0.0000000000000000000, -2.425700000000005300, 6.355033237303017800E-020 ) ) ;
#82 = MANIFOLD_SOLID_BREP ( '¸ðµû±â1', #90 ) ;
#83 = STYLED_ITEM ( 'NONE', ( #63 ), #82 ) ;
#84 = DIRECTION ( 'NONE',  ( 0.0000000000000000000, -1.000000000000000000, 2.619876009936514900E-020 ) ) ;
#85 = EDGE_LOOP ( 'NONE', ( #205, #190 ) ) ;
#86 = CARTESIAN_POINT ( 'NONE',  ( 0.0000000000000000000, -2.329069772833561100E-018, -88.89999999999999100 ) ) ;
#87 = CARTESIAN_POINT ( 'NONE',  ( 0.0000000000000000000, -2.425700000000011500, -88.89999999999999100 ) ) ;
#88 = ORIENTED_EDGE ( 'NONE', *, *, #136, .F. ) ;
#89 = DIRECTION ( 'NONE',  ( 0.0000000000000000000, -2.619876009936514600E-020, -1.000000000000000000 ) ) ;
#90 = CLOSED_SHELL ( 'NONE', ( #92, #181, #146, #16, #76, #48, #106 ) ) ;
#91 = ORIENTED_EDGE ( 'NONE', *, *, #17, .F. ) ;
#92 = ADVANCED_FACE ( 'NONE', ( #49 ), #164, .T. ) ;
#93 = EDGE_CURVE ( 'NONE', #128, #214, #23, .T. ) ;
#94 = EDGE_CURVE ( 'NONE', #128, #144, #170, .T. ) ;
#95 = VERTEX_POINT ( 'NONE', #100 ) ;
#96 = DIRECTION ( 'NONE',  ( -0.0000000000000000000, 2.619876009936514600E-020, 1.000000000000000000 ) ) ;
#97 = CARTESIAN_POINT ( 'NONE',  ( 0.0000000000000000000, 3.892168026225118900E-036, 1.485630622007732100E-016 ) ) ;
#98 = AXIS2_PLACEMENT_3D ( 'NONE', #138, #174, #196 ) ;
#99 = DIRECTION ( 'NONE',  ( 0.0000000000000000000, -2.619876009936514600E-020, -1.000000000000000000 ) ) ;
#100 = CARTESIAN_POINT ( 'NONE',  ( 0.0000000000000000000, -2.355393182395787900E-018, -89.90475783824841500 ) ) ;
#101 =( NAMED_UNIT ( * ) SI_UNIT ( $, .STERADIAN. ) SOLID_ANGLE_UNIT ( ) );
#102 = LINE ( 'NONE', #156, #179 ) ;
#103 = ORIENTED_EDGE ( 'NONE', *, *, #182, .F. ) ;
#104 = PRESENTATION_LAYER_ASSIGNMENT (  '', '', ( #83 ) ) ;
#105 = FACE_OUTER_BOUND ( 'NONE', #139, .T. ) ;
#106 = ADVANCED_FACE ( 'NONE', ( #105 ), #33, .T. ) ;
#107 = LINE ( 'NONE', #204, #28 ) ;
#108 = FACE_OUTER_BOUND ( 'NONE', #8, .T. ) ;
#109 = ORIENTED_EDGE ( 'NONE', *, *, #53, .T. ) ;
#110 = DIRECTION ( 'NONE',  ( 0.0000000000000000000, -2.619876009936514600E-020, -1.000000000000000000 ) ) ;
#111 = APPLICATION_PROTOCOL_DEFINITION ( 'draft international standard', 'automotive_design', 1998, #70 ) ;
#112 =( GEOMETRIC_REPRESENTATION_CONTEXT ( 3 ) GLOBAL_UNCERTAINTY_ASSIGNED_CONTEXT ( ( #145 ) ) GLOBAL_UNIT_ASSIGNED_CONTEXT ( ( #172, #167, #131 ) ) REPRESENTATION_CONTEXT ( 'NONE', 'WORKASPACE' ) );
#113 = DIRECTION ( 'NONE',  ( 0.0000000000000000000, 1.000000000000000000, -2.619876009936896100E-020 ) ) ;
#114 = ORIENTED_EDGE ( 'NONE', *, *, #147, .F. ) ;
#115 = DIRECTION ( 'NONE',  ( -0.0000000000000000000, 2.619876009936514600E-020, 1.000000000000000000 ) ) ;
#116 = CARTESIAN_POINT ( 'NONE',  ( 0.0000000000000000000, 0.0000000000000000000, 0.0000000000000000000 ) ) ;
#117 = LINE ( 'NONE', #42, #30 ) ;
#118 = PRODUCT_DEFINITION_CONTEXT ( 'detailed design', #70, 'design' ) ;
#119 = VERTEX_POINT ( 'NONE', #43 ) ;
#120 = AXIS2_PLACEMENT_3D ( 'NONE', #6, #169, #21 ) ;
#121 = VECTOR ( 'NONE', #189, 1000.000000000000000 ) ;
#122 = EDGE_LOOP ( 'NONE', ( #142, #199, #91, #183 ) ) ;
#123 = EDGE_CURVE ( 'NONE', #119, #144, #79, .T. ) ;
#124 = AXIS2_PLACEMENT_3D ( 'NONE', #86, #207, #61 ) ;
#125 = EDGE_LOOP ( 'NONE', ( #88, #180, #211 ) ) ;
#126 = AXIS2_PLACEMENT_3D ( 'NONE', #67, #99, #37 ) ;
#127 = CYLINDRICAL_SURFACE ( 'NONE', #129, 2.425700000000005300 ) ;
#128 = VERTEX_POINT ( 'NONE', #87 ) ;
#129 = AXIS2_PLACEMENT_3D ( 'NONE', #10, #203, #84 ) ;
#130 = CARTESIAN_POINT ( 'NONE',  ( 2.970625740691741800E-016, 2.425700000000005300, -0.4851400000000065700 ) ) ;
#131 =( NAMED_UNIT ( * ) SI_UNIT ( $, .STERADIAN. ) SOLID_ANGLE_UNIT ( ) );
#132 = CIRCLE ( 'NONE', #120, 2.425700000000005300 ) ;
#133 = CARTESIAN_POINT ( 'NONE',  ( 0.0000000000000000000, 2.384336691696935700E-017, 910.0952421617516800 ) ) ;
#134 = DIRECTION ( 'NONE',  ( 0.0000000000000000000, -1.000000000000000000, 0.0000000000000000000 ) ) ;
#135 =( NAMED_UNIT ( * ) SI_UNIT ( $, .STERADIAN. ) SOLID_ANGLE_UNIT ( ) );
#136 = EDGE_CURVE ( 'NONE', #95, #214, #117, .T. ) ;
#137 = CARTESIAN_POINT ( 'NONE',  ( 0.0000000000000000000, 3.892168026225118900E-036, 1.485630622007732100E-016 ) ) ;
#138 = CARTESIAN_POINT ( 'NONE',  ( 0.0000000000000000000, -1.271006647460617900E-020, -0.4851400000000065700 ) ) ;
#139 = EDGE_LOOP ( 'NONE', ( #198, #78, #56, #103 ) ) ;
#140 = AXIS2_PLACEMENT_3D ( 'NONE', #27, #89, #12 ) ;
#141 = CARTESIAN_POINT ( 'NONE',  ( 2.970625740691748700E-016, 2.425700000000011500, -88.89999999999999100 ) ) ;
#142 = ORIENTED_EDGE ( 'NONE', *, *, #46, .F. ) ;
#143 = PRESENTATION_LAYER_ASSIGNMENT (  '', '', ( #1 ) ) ;
#144 = VERTEX_POINT ( 'NONE', #157 ) ;
#145 = UNCERTAINTY_MEASURE_WITH_UNIT (LENGTH_MEASURE( 1.000000000000000100E-005 ), #172, 'distance_accuracy_value', 'NONE');
#146 = ADVANCED_FACE ( 'NONE', ( #108 ), #163, .T. ) ;
#147 = EDGE_CURVE ( 'NONE', #95, #128, #102, .T. ) ;
#148 = AXIS2_PLACEMENT_3D ( 'NONE', #57, #54, #188 ) ;
#149 = DIRECTION ( 'NONE',  ( 0.0000000000000000000, 1.000000000000000000, -2.619876009936896100E-020 ) ) ;
#150 = LINE ( 'NONE', #24, #51 ) ;
#151 = CARTESIAN_POINT ( 'NONE',  ( 0.0000000000000000000, 2.425699999999999500, 1.484995118684001500E-016 ) ) ;
#152 = SURFACE_STYLE_USAGE ( .BOTH. , #55 ) ;
#153 = APPLICATION_CONTEXT ( 'automotive_design' ) ;
#154 = UNCERTAINTY_MEASURE_WITH_UNIT (LENGTH_MEASURE( 1.000000000000000100E-005 ), #197, 'distance_accuracy_value', 'NONE');
#155 = CARTESIAN_POINT ( 'NONE',  ( 0.0000000000000000000, 0.0000000000000000000, 0.0000000000000000000 ) ) ;
#156 = CARTESIAN_POINT ( 'NONE',  ( 0.0000000000000000000, -2.355393182395788700E-018, -89.90475783824841500 ) ) ;
#157 = CARTESIAN_POINT ( 'NONE',  ( 0.0000000000000000000, -2.425700000000005300, -0.4851400000000065700 ) ) ;
#158 = FACE_OUTER_BOUND ( 'NONE', #186, .T. ) ;
#159 = ADVANCED_BREP_SHAPE_REPRESENTATION ( '03-0294', ( #82, #4 ), #208 ) ;
#160 = CARTESIAN_POINT ( 'NONE',  ( 0.0000000000000000000, 2.384336691696935700E-017, 910.0952421617516800 ) ) ;
#161 = AXIS2_PLACEMENT_3D ( 'NONE', #160, #40, #13 ) ;
#162 = ORIENTED_EDGE ( 'NONE', *, *, #94, .T. ) ;
#163 = CONICAL_SURFACE ( 'NONE', #161, 2414.213562373088700, 1.178097245096171500 ) ;
#164 = CONICAL_SURFACE ( 'NONE', #126, 1.940559999999993800, 0.7853981633974532800 ) ;
#165 = EDGE_LOOP ( 'NONE', ( #176, #109, #162, #77 ) ) ;
#166 = ORIENTED_EDGE ( 'NONE', *, *, #93, .T. ) ;
#167 =( NAMED_UNIT ( * ) PLANE_ANGLE_UNIT ( ) SI_UNIT ( $, .RADIAN. ) );
#168 = SURFACE_STYLE_USAGE ( .BOTH. , #39 ) ;
#169 = DIRECTION ( 'NONE',  ( 0.0000000000000000000, -2.619876009936514600E-020, -1.000000000000000000 ) ) ;
#170 = LINE ( 'NONE', #81, #121 ) ;
#171 =( LENGTH_UNIT ( ) NAMED_UNIT ( * ) SI_UNIT ( .MILLI., .METRE. ) );
#172 =( LENGTH_UNIT ( ) NAMED_UNIT ( * ) SI_UNIT ( .MILLI., .METRE. ) );
#173 = DIRECTION ( 'NONE',  ( 0.0000000000000000000, -0.9238795325112865200, 0.3826834323650906100 ) ) ;
#174 = DIRECTION ( 'NONE',  ( 0.0000000000000000000, -2.619876009936514600E-020, -1.000000000000000000 ) ) ;
#175 = PRODUCT_RELATED_PRODUCT_CATEGORY ( 'part', '', ( #41 ) ) ;
#176 = ORIENTED_EDGE ( 'NONE', *, *, #64, .F. ) ;
#177 = DIRECTION ( 'NONE',  ( 0.0000000000000000000, -1.000000000000000000, 2.619876009936514900E-020 ) ) ;
#178 = PRESENTATION_STYLE_ASSIGNMENT (( #168 ) ) ;
#179 = VECTOR ( 'NONE', #173, 999.9999999999998900 ) ;
#180 = ORIENTED_EDGE ( 'NONE', *, *, #147, .T. ) ;
#181 = ADVANCED_FACE ( 'NONE', ( #158 ), #65, .T. ) ;
#182 = EDGE_CURVE ( 'NONE', #144, #80, #209, .T. ) ;
#183 = ORIENTED_EDGE ( 'NONE', *, *, #187, .F. ) ;
#184 =( NAMED_UNIT ( * ) PLANE_ANGLE_UNIT ( ) SI_UNIT ( $, .RADIAN. ) );
#185 = AXIS2_PLACEMENT_3D ( 'NONE', #97, #96, #113 ) ;
#186 = EDGE_LOOP ( 'NONE', ( #166, #44, #52, #18 ) ) ;
#187 = EDGE_CURVE ( 'NONE', #32, #80, #150, .T. ) ;
#188 = DIRECTION ( 'NONE',  ( 0.0000000000000000000, -1.000000000000000000, 0.0000000000000000000 ) ) ;
#189 = DIRECTION ( 'NONE',  ( -0.0000000000000000000, 2.619876009936514600E-020, 1.000000000000000000 ) ) ;
#190 = ORIENTED_EDGE ( 'NONE', *, *, #46, .T. ) ;
#191 = FILL_AREA_STYLE ('',( #193 ) ) ;
#192 = CARTESIAN_POINT ( 'NONE',  ( 0.0000000000000000000, 1.940559999999993800, 1.485122219348747600E-016 ) ) ;
#193 = FILL_AREA_STYLE_COLOUR ( '', #68 ) ;
#194 = DIRECTION ( 'NONE',  ( 0.0000000000000000000, 0.0000000000000000000, 1.000000000000000000 ) ) ;
#195 = CARTESIAN_POINT ( 'NONE',  ( 2.376500592553380000E-016, -1.940559999999993800, 1.486139024666716400E-016 ) ) ;
#196 = DIRECTION ( 'NONE',  ( 0.0000000000000000000, 1.000000000000000000, 0.0000000000000000000 ) ) ;
#197 =( LENGTH_UNIT ( ) NAMED_UNIT ( * ) SI_UNIT ( .MILLI., .METRE. ) );
#198 = ORIENTED_EDGE ( 'NONE', *, *, #123, .F. ) ;
#199 = ORIENTED_EDGE ( 'NONE', *, *, #123, .T. ) ;
#200 = PRODUCT_DEFINITION ( 'UNKNOWN', '', #210, #118 ) ;
#201 = SURFACE_STYLE_FILL_AREA ( #191 ) ;
#202 = AXIS2_PLACEMENT_3D ( 'NONE', #116, #59, #177 ) ;
#203 = DIRECTION ( 'NONE',  ( -0.0000000000000000000, 2.619876009936514600E-020, 1.000000000000000000 ) ) ;
#204 = CARTESIAN_POINT ( 'NONE',  ( 2.970625740691741800E-016, 2.425700000000005300, -6.355033237303017800E-020 ) ) ;
#205 = ORIENTED_EDGE ( 'NONE', *, *, #62, .T. ) ;
#206 = PLANE ( 'NONE',  #26 ) ;
#207 = DIRECTION ( 'NONE',  ( -0.0000000000000000000, 2.619876009936514600E-020, 1.000000000000000000 ) ) ;
#208 =( GEOMETRIC_REPRESENTATION_CONTEXT ( 3 ) GLOBAL_UNCERTAINTY_ASSIGNED_CONTEXT ( ( #154 ) ) GLOBAL_UNIT_ASSIGNED_CONTEXT ( ( #197, #184, #101 ) ) REPRESENTATION_CONTEXT ( 'NONE', 'WORKASPACE' ) );
#209 = CIRCLE ( 'NONE', #98, 2.425700000000005300 ) ;
#210 = PRODUCT_DEFINITION_FORMATION_WITH_SPECIFIED_SOURCE ( 'ANY', '', #41, .NOT_KNOWN. ) ;
#211 = ORIENTED_EDGE ( 'NONE', *, *, #53, .F. ) ;
#212 = PRODUCT_DEFINITION_SHAPE ( 'NONE', 'NONE',  #200 ) ;
#213 = COLOUR_RGB ( '',0.7921568627450980000, 0.8196078431372548800, 0.9333333333333333500 ) ;
#214 = VERTEX_POINT ( 'NONE', #141 ) ;
ENDSEC;
END-ISO-10303-21;
