ISO-10303-21;
HEADER;
FILE_DESCRIPTION (( 'STEP AP214' ),
    '1' );
FILE_NAME ('03-0295.STEP',
    '2020-07-23T06:26:03',
    ( '' ),
    ( '' ),
    'SwSTEP 2.0',
    'SolidWorks 2014',
    '' );
FILE_SCHEMA (( 'AUTOMOTIVE_DESIGN' ));
ENDSEC;

DATA;
#1 = CARTESIAN_POINT ( 'NONE',  ( 0.0000000000000000000, -3.215891808449456800E-019, -89.89423681376415200 ) ) ;
#2 = DIRECTION ( 'NONE',  ( -0.0000000000000000000, 3.577417109744076300E-021, 1.000000000000000000 ) ) ;
#3 = MECHANICAL_DESIGN_GEOMETRIC_PRESENTATION_REPRESENTATION (  '', ( #147 ), #170 ) ;
#4 = LINE ( 'NONE', #61, #171 ) ;
#5 = ADVANCED_FACE ( 'NONE', ( #140 ), #45, .T. ) ;
#6 = AXIS2_PLACEMENT_3D ( 'NONE', #74, #203, #31 ) ;
#7 = ORIENTED_EDGE ( 'NONE', *, *, #210, .F. ) ;
#8 = CONICAL_SURFACE ( 'NONE', #136, 2414.213562373050500, 1.178097245096166000 ) ;
#9 = ORIENTED_EDGE ( 'NONE', *, *, #101, .F. ) ;
#10 = ADVANCED_BREP_SHAPE_REPRESENTATION ( '03-0295', ( #15, #93 ), #104 ) ;
#11 = VERTEX_POINT ( 'NONE', #22 ) ;
#12 = AXIS2_PLACEMENT_3D ( 'NONE', #177, #20, #179 ) ;
#13 = EDGE_LOOP ( 'NONE', ( #7, #54, #57 ) ) ;
#14 =( NAMED_UNIT ( * ) PLANE_ANGLE_UNIT ( ) SI_UNIT ( $, .RADIAN. ) );
#15 = MANIFOLD_SOLID_BREP ( '¸ðµû±â1', #143 ) ;
#16 =( LENGTH_UNIT ( ) NAMED_UNIT ( * ) SI_UNIT ( .MILLI., .METRE. ) );
#17 = CARTESIAN_POINT ( 'NONE',  ( 0.0000000000000000000, 1.920240000000003700, 1.469734095373830300E-016 ) ) ;
#18 = CARTESIAN_POINT ( 'NONE',  ( 5.758261576601241300E-051, -3.215891808449456800E-019, -89.89423681376415200 ) ) ;
#19 = AXIS2_PLACEMENT_3D ( 'NONE', #67, #51, #131 ) ;
#20 = DIRECTION ( 'NONE',  ( 0.0000000000000000000, -3.577417109744076300E-021, -1.000000000000000000 ) ) ;
#21 = EDGE_LOOP ( 'NONE', ( #28, #89, #205, #9 ) ) ;
#22 = CARTESIAN_POINT ( 'NONE',  ( 2.939519711993405000E-016, 2.400300000000010800, -88.89999999999999100 ) ) ;
#23 = FACE_OUTER_BOUND ( 'NONE', #175, .T. ) ;
#24 = ORIENTED_EDGE ( 'NONE', *, *, #200, .T. ) ;
#25 = DIRECTION ( 'NONE',  ( 0.0000000000000000000, 1.000000000000000000, 0.0000000000000000000 ) ) ;
#26 = VERTEX_POINT ( 'NONE', #178 ) ;
#27 = LINE ( 'NONE', #76, #155 ) ;
#28 = ORIENTED_EDGE ( 'NONE', *, *, #123, .F. ) ;
#29 = EDGE_CURVE ( 'NONE', #26, #124, #145, .T. ) ;
#30 = CARTESIAN_POINT ( 'NONE',  ( 2.939519711993399100E-016, 2.400300000000005900, -8.586874288518727800E-021 ) ) ;
#31 = DIRECTION ( 'NONE',  ( 0.0000000000000000000, 1.000000000000000000, -3.577417109748850500E-021 ) ) ;
#32 = AXIS2_PLACEMENT_3D ( 'NONE', #46, #109, #158 ) ;
#33 = EDGE_CURVE ( 'NONE', #184, #134, #142, .T. ) ;
#34 = DIRECTION ( 'NONE',  ( 0.0000000000000000000, -1.000000000000000000, 3.577417109744076300E-021 ) ) ;
#35 =( NAMED_UNIT ( * ) PLANE_ANGLE_UNIT ( ) SI_UNIT ( $, .RADIAN. ) );
#36 = PLANE ( 'NONE',  #12 ) ;
#37 = DIRECTION ( 'NONE',  ( 0.0000000000000000000, 1.000000000000000000, -3.577417109748850500E-021 ) ) ;
#38 = CARTESIAN_POINT ( 'NONE',  ( 0.0000000000000000000, -2.400300000000005900, -0.4800600000000112000 ) ) ;
#39 = AXIS2_PLACEMENT_3D ( 'NONE', #157, #102, #25 ) ;
#40 = ADVANCED_FACE ( 'NONE', ( #44 ), #64, .T. ) ;
#41 = FACE_OUTER_BOUND ( 'NONE', #13, .T. ) ;
#42 = EDGE_LOOP ( 'NONE', ( #90, #194, #98, #187 ) ) ;
#43 = EDGE_CURVE ( 'NONE', #117, #154, #4, .T. ) ;
#44 = FACE_OUTER_BOUND ( 'NONE', #120, .T. ) ;
#45 = CONICAL_SURFACE ( 'NONE', #207, 1.920240000000003700, 0.7853981633974388400 ) ;
#46 = CARTESIAN_POINT ( 'NONE',  ( 0.0000000000000000000, 0.0000000000000000000, 0.0000000000000000000 ) ) ;
#47 = AXIS2_PLACEMENT_3D ( 'NONE', #78, #113, #96 ) ;
#48 = ORIENTED_EDGE ( 'NONE', *, *, #210, .T. ) ;
#49 = DIRECTION ( 'NONE',  ( 0.0000000000000000000, 0.0000000000000000000, 1.000000000000000000 ) ) ;
#50 = DIRECTION ( 'NONE',  ( -0.0000000000000000000, 3.577417109744076300E-021, 1.000000000000000000 ) ) ;
#51 = DIRECTION ( 'NONE',  ( -0.0000000000000000000, 3.577417109744076300E-021, 1.000000000000000000 ) ) ;
#52 = DIRECTION ( 'NONE',  ( -0.0000000000000000000, 3.577417109744076300E-021, 1.000000000000000000 ) ) ;
#53 = DIRECTION ( 'NONE',  ( 8.659560562354849000E-017, -0.7071067811865408000, -0.7071067811865541200 ) ) ;
#54 = ORIENTED_EDGE ( 'NONE', *, *, #43, .T. ) ;
#55 = EDGE_CURVE ( 'NONE', #11, #154, #212, .T. ) ;
#56 = LINE ( 'NONE', #18, #161 ) ;
#57 = ORIENTED_EDGE ( 'NONE', *, *, #55, .F. ) ;
#58 = AXIS2_PLACEMENT_3D ( 'NONE', #133, #2, #34 ) ;
#59 = ORIENTED_EDGE ( 'NONE', *, *, #174, .F. ) ;
#60 = EDGE_CURVE ( 'NONE', #11, #26, #126, .T. ) ;
#61 = CARTESIAN_POINT ( 'NONE',  ( 0.0000000000000000000, -3.215891808449457700E-019, -89.89423681376415200 ) ) ;
#62 = PRODUCT ( '03-0295', '03-0295', '', ( #111 ) ) ;
#63 = ORIENTED_EDGE ( 'NONE', *, *, #29, .T. ) ;
#64 = CYLINDRICAL_SURFACE ( 'NONE', #32, 2.400300000000005900 ) ;
#65 = EDGE_CURVE ( 'NONE', #134, #184, #182, .T. ) ;
#66 = SURFACE_STYLE_FILL_AREA ( #80 ) ;
#67 = CARTESIAN_POINT ( 'NONE',  ( 0.0000000000000000000, -3.180323810562483400E-019, -88.89999999999999100 ) ) ;
#68 = AXIS2_PLACEMENT_3D ( 'NONE', #141, #159, #86 ) ;
#69 =( NAMED_UNIT ( * ) SI_UNIT ( $, .STERADIAN. ) SOLID_ANGLE_UNIT ( ) );
#70 = ORIENTED_EDGE ( 'NONE', *, *, #33, .T. ) ;
#71 =( NAMED_UNIT ( * ) PLANE_ANGLE_UNIT ( ) SI_UNIT ( $, .RADIAN. ) );
#72 = LINE ( 'NONE', #94, #139 ) ;
#73 = ADVANCED_FACE ( 'NONE', ( #23 ), #144, .T. ) ;
#74 = CARTESIAN_POINT ( 'NONE',  ( 0.0000000000000000000, 5.258097650212564800E-037, 1.469802790368138500E-016 ) ) ;
#75 = VECTOR ( 'NONE', #115, 1000.000000000000100 ) ;
#76 = CARTESIAN_POINT ( 'NONE',  ( 0.0000000000000000000, -2.400300000000005900, 8.586874288518727800E-021 ) ) ;
#77 = FACE_OUTER_BOUND ( 'NONE', #180, .T. ) ;
#78 = CARTESIAN_POINT ( 'NONE',  ( 0.0000000000000000000, 5.258097650212564000E-037, 1.469802790368138500E-016 ) ) ;
#79 = AXIS2_PLACEMENT_3D ( 'NONE', #176, #167, #197 ) ;
#80 = FILL_AREA_STYLE ('',( #181 ) ) ;
#81 = DIRECTION ( 'NONE',  ( 0.0000000000000000000, -1.000000000000000000, 0.0000000000000000000 ) ) ;
#82 = ADVANCED_FACE ( 'NONE', ( #119 ), #8, .T. ) ;
#83 = VECTOR ( 'NONE', #188, 1000.000000000000000 ) ;
#84 = ADVANCED_FACE ( 'NONE', ( #77 ), #36, .F. ) ;
#85 = PRODUCT_DEFINITION_CONTEXT ( 'detailed design', #164, 'design' ) ;
#86 = DIRECTION ( 'NONE',  ( 0.0000000000000000000, -1.000000000000000000, 0.0000000000000000000 ) ) ;
#87 = UNCERTAINTY_MEASURE_WITH_UNIT (LENGTH_MEASURE( 1.000000000000000100E-005 ), #199, 'distance_accuracy_value', 'NONE');
#88 = PRODUCT_RELATED_PRODUCT_CATEGORY ( 'part', '', ( #62 ) ) ;
#89 = ORIENTED_EDGE ( 'NONE', *, *, #65, .F. ) ;
#90 = ORIENTED_EDGE ( 'NONE', *, *, #33, .F. ) ;
#91 = APPLICATION_CONTEXT ( 'automotive_design' ) ;
#92 = APPLICATION_PROTOCOL_DEFINITION ( 'draft international standard', 'automotive_design', 1998, #91 ) ;
#93 = AXIS2_PLACEMENT_3D ( 'NONE', #195, #49, #163 ) ;
#94 = CARTESIAN_POINT ( 'NONE',  ( 2.351615769594717900E-016, -1.920240000000003700, 1.469871485362446700E-016 ) ) ;
#95 = FILL_AREA_STYLE_COLOUR ( '', #106 ) ;
#96 = DIRECTION ( 'NONE',  ( 0.0000000000000000000, 1.000000000000000000, -3.577417109748850500E-021 ) ) ;
#97 = SURFACE_SIDE_STYLE ('',( #66 ) ) ;
#98 = ORIENTED_EDGE ( 'NONE', *, *, #29, .F. ) ;
#99 = DIRECTION ( 'NONE',  ( 0.0000000000000000000, 1.000000000000000000, -3.577417109748850500E-021 ) ) ;
#100 = CIRCLE ( 'NONE', #19, 2.400300000000011600 ) ;
#101 = EDGE_CURVE ( 'NONE', #124, #26, #169, .T. ) ;
#102 = DIRECTION ( 'NONE',  ( 0.0000000000000000000, -3.577417109744075600E-021, -1.000000000000000000 ) ) ;
#103 = ADVANCED_FACE ( 'NONE', ( #122 ), #186, .T. ) ;
#104 =( GEOMETRIC_REPRESENTATION_CONTEXT ( 3 ) GLOBAL_UNCERTAINTY_ASSIGNED_CONTEXT ( ( #202 ) ) GLOBAL_UNIT_ASSIGNED_CONTEXT ( ( #196, #14, #165 ) ) REPRESENTATION_CONTEXT ( 'NONE', 'WORKASPACE' ) );
#105 = ORIENTED_EDGE ( 'NONE', *, *, #43, .F. ) ;
#106 = COLOUR_RGB ( '',0.7921568627450980000, 0.8196078431372548800, 0.9333333333333333500 ) ;
#107 = DIRECTION ( 'NONE',  ( -0.0000000000000000000, 3.577417109744076300E-021, 1.000000000000000000 ) ) ;
#108 = ORIENTED_EDGE ( 'NONE', *, *, #174, .T. ) ;
#109 = DIRECTION ( 'NONE',  ( -0.0000000000000000000, 3.577417109744076300E-021, 1.000000000000000000 ) ) ;
#110 = ORIENTED_EDGE ( 'NONE', *, *, #60, .F. ) ;
#111 = PRODUCT_CONTEXT ( 'NONE', #91, 'mechanical' ) ;
#112 = SURFACE_SIDE_STYLE ('',( #138 ) ) ;
#113 = DIRECTION ( 'NONE',  ( 0.0000000000000000000, -3.577417109744075600E-021, -1.000000000000000000 ) ) ;
#114 = FILL_AREA_STYLE ('',( #95 ) ) ;
#115 = DIRECTION ( 'NONE',  ( 0.0000000000000000000, 0.7071067811865408000, -0.7071067811865541200 ) ) ;
#116 =( NAMED_UNIT ( * ) SI_UNIT ( $, .STERADIAN. ) SOLID_ANGLE_UNIT ( ) );
#117 = VERTEX_POINT ( 'NONE', #1 ) ;
#118 = ADVANCED_FACE ( 'NONE', ( #41 ), #208, .T. ) ;
#119 = FACE_OUTER_BOUND ( 'NONE', #190, .T. ) ;
#120 = EDGE_LOOP ( 'NONE', ( #110, #146, #108, #162 ) ) ;
#121 = ORIENTED_EDGE ( 'NONE', *, *, #65, .T. ) ;
#122 = FACE_OUTER_BOUND ( 'NONE', #42, .T. ) ;
#123 = EDGE_CURVE ( 'NONE', #184, #124, #72, .T. ) ;
#124 = VERTEX_POINT ( 'NONE', #38 ) ;
#125 = ORIENTED_EDGE ( 'NONE', *, *, #60, .T. ) ;
#126 = LINE ( 'NONE', #30, #83 ) ;
#127 = PRESENTATION_STYLE_ASSIGNMENT (( #166 ) ) ;
#128 = EDGE_CURVE ( 'NONE', #134, #26, #193, .T. ) ;
#129 = SURFACE_STYLE_USAGE ( .BOTH. , #112 ) ;
#130 = CARTESIAN_POINT ( 'NONE',  ( 0.0000000000000000000, 1.920240000000003700, 1.469734095373830300E-016 ) ) ;
#131 = DIRECTION ( 'NONE',  ( 0.0000000000000000000, -1.000000000000000000, 0.0000000000000000000 ) ) ;
#132 = CARTESIAN_POINT ( 'NONE',  ( 0.0000000000000000000, 3.255827928899130600E-018, 910.1057631862357800 ) ) ;
#133 = CARTESIAN_POINT ( 'NONE',  ( 0.0000000000000000000, 0.0000000000000000000, 0.0000000000000000000 ) ) ;
#134 = VERTEX_POINT ( 'NONE', #17 ) ;
#135 = PRESENTATION_LAYER_ASSIGNMENT (  '', '', ( #147 ) ) ;
#136 = AXIS2_PLACEMENT_3D ( 'NONE', #201, #52, #214 ) ;
#137 = ORIENTED_EDGE ( 'NONE', *, *, #200, .F. ) ;
#138 = SURFACE_STYLE_FILL_AREA ( #114 ) ;
#139 = VECTOR ( 'NONE', #53, 1000.000000000000100 ) ;
#140 = FACE_OUTER_BOUND ( 'NONE', #21, .T. ) ;
#141 = CARTESIAN_POINT ( 'NONE',  ( 0.0000000000000000000, -3.180323810562483400E-019, -88.89999999999999100 ) ) ;
#142 = CIRCLE ( 'NONE', #6, 1.920240000000003700 ) ;
#143 = CLOSED_SHELL ( 'NONE', ( #103, #73, #82, #84, #118, #40, #5 ) ) ;
#144 = CYLINDRICAL_SURFACE ( 'NONE', #58, 2.400300000000005900 ) ;
#145 = CIRCLE ( 'NONE', #39, 2.400300000000005900 ) ;
#146 = ORIENTED_EDGE ( 'NONE', *, *, #55, .T. ) ;
#147 = STYLED_ITEM ( 'NONE', ( #127 ), #15 ) ;
#148 = APPLICATION_PROTOCOL_DEFINITION ( 'draft international standard', 'automotive_design', 1998, #164 ) ;
#149 = UNCERTAINTY_MEASURE_WITH_UNIT (LENGTH_MEASURE( 1.000000000000000100E-005 ), #16, 'distance_accuracy_value', 'NONE');
#150 = CARTESIAN_POINT ( 'NONE',  ( 2.645567740794058200E-016, -1.920240000000003700, 1.469871485362446700E-016 ) ) ;
#151 = DIRECTION ( 'NONE',  ( 1.131426112287697100E-016, 0.9238795325112841800, 0.3826834323650957200 ) ) ;
#152 = CARTESIAN_POINT ( 'NONE',  ( 0.0000000000000000000, -2.400300000000010800, -88.89999999999999100 ) ) ;
#153 = CARTESIAN_POINT ( 'NONE',  ( 0.0000000000000000000, 5.258097650212564000E-037, 1.469802790368138500E-016 ) ) ;
#154 = VERTEX_POINT ( 'NONE', #152 ) ;
#155 = VECTOR ( 'NONE', #172, 1000.000000000000000 ) ;
#156 = COLOUR_RGB ( '',0.7921568627450980000, 0.8196078431372548800, 0.9333333333333333500 ) ;
#157 = CARTESIAN_POINT ( 'NONE',  ( 0.0000000000000000000, -1.717374857703781400E-021, -0.4800600000000112000 ) ) ;
#158 = DIRECTION ( 'NONE',  ( 0.0000000000000000000, -1.000000000000000000, 3.577417109744076300E-021 ) ) ;
#159 = DIRECTION ( 'NONE',  ( -0.0000000000000000000, 3.577417109744076300E-021, 1.000000000000000000 ) ) ;
#160 = AXIS2_PLACEMENT_3D ( 'NONE', #132, #50, #81 ) ;
#161 = VECTOR ( 'NONE', #151, 1000.000000000000100 ) ;
#162 = ORIENTED_EDGE ( 'NONE', *, *, #101, .T. ) ;
#163 = DIRECTION ( 'NONE',  ( 1.000000000000000000, 0.0000000000000000000, 0.0000000000000000000 ) ) ;
#164 = APPLICATION_CONTEXT ( 'automotive_design' ) ;
#165 =( NAMED_UNIT ( * ) SI_UNIT ( $, .STERADIAN. ) SOLID_ANGLE_UNIT ( ) );
#166 = SURFACE_STYLE_USAGE ( .BOTH. , #97 ) ;
#167 = DIRECTION ( 'NONE',  ( 0.0000000000000000000, -3.577417109744075600E-021, -1.000000000000000000 ) ) ;
#168 = DIRECTION ( 'NONE',  ( 0.0000000000000000000, -3.577417109744075600E-021, -1.000000000000000000 ) ) ;
#169 = CIRCLE ( 'NONE', #79, 2.400300000000005900 ) ;
#170 =( GEOMETRIC_REPRESENTATION_CONTEXT ( 3 ) GLOBAL_UNCERTAINTY_ASSIGNED_CONTEXT ( ( #87 ) ) GLOBAL_UNIT_ASSIGNED_CONTEXT ( ( #199, #71, #116 ) ) REPRESENTATION_CONTEXT ( 'NONE', 'WORKASPACE' ) );
#171 = VECTOR ( 'NONE', #173, 1000.000000000000100 ) ;
#172 = DIRECTION ( 'NONE',  ( -0.0000000000000000000, 3.577417109744076300E-021, 1.000000000000000000 ) ) ;
#173 = DIRECTION ( 'NONE',  ( 0.0000000000000000000, -0.9238795325112841800, 0.3826834323650957200 ) ) ;
#174 = EDGE_CURVE ( 'NONE', #154, #124, #27, .T. ) ;
#175 = EDGE_LOOP ( 'NONE', ( #24, #125, #63, #59 ) ) ;
#176 = CARTESIAN_POINT ( 'NONE',  ( 0.0000000000000000000, -1.717374857703781400E-021, -0.4800600000000112000 ) ) ;
#177 = CARTESIAN_POINT ( 'NONE',  ( 0.0000000000000000000, 2.400300000000000100, 1.469716921625253200E-016 ) ) ;
#178 = CARTESIAN_POINT ( 'NONE',  ( 2.939519711993399100E-016, 2.400300000000005900, -0.4800600000000112000 ) ) ;
#179 = DIRECTION ( 'NONE',  ( 0.0000000000000000000, 1.000000000000000000, -3.577417109744076300E-021 ) ) ;
#180 = EDGE_LOOP ( 'NONE', ( #121, #70 ) ) ;
#181 = FILL_AREA_STYLE_COLOUR ( '', #156 ) ;
#182 = CIRCLE ( 'NONE', #183, 1.920240000000003700 ) ;
#183 = AXIS2_PLACEMENT_3D ( 'NONE', #185, #107, #99 ) ;
#184 = VERTEX_POINT ( 'NONE', #150 ) ;
#185 = CARTESIAN_POINT ( 'NONE',  ( 0.0000000000000000000, 5.258097650212564800E-037, 1.469802790368138500E-016 ) ) ;
#186 = CONICAL_SURFACE ( 'NONE', #47, 1.920240000000003700, 0.7853981633974388400 ) ;
#187 = ORIENTED_EDGE ( 'NONE', *, *, #128, .F. ) ;
#188 = DIRECTION ( 'NONE',  ( -0.0000000000000000000, 3.577417109744076300E-021, 1.000000000000000000 ) ) ;
#189 = PRESENTATION_LAYER_ASSIGNMENT (  '', '', ( #198 ) ) ;
#190 = EDGE_LOOP ( 'NONE', ( #105, #48, #137 ) ) ;
#191 = PRODUCT_DEFINITION ( 'UNKNOWN', '', #206, #85 ) ;
#192 = SHAPE_DEFINITION_REPRESENTATION ( #211, #10 ) ;
#193 = LINE ( 'NONE', #130, #75 ) ;
#194 = ORIENTED_EDGE ( 'NONE', *, *, #123, .T. ) ;
#195 = CARTESIAN_POINT ( 'NONE',  ( 0.0000000000000000000, 0.0000000000000000000, 0.0000000000000000000 ) ) ;
#196 =( LENGTH_UNIT ( ) NAMED_UNIT ( * ) SI_UNIT ( .MILLI., .METRE. ) );
#197 = DIRECTION ( 'NONE',  ( 0.0000000000000000000, 1.000000000000000000, 0.0000000000000000000 ) ) ;
#198 = STYLED_ITEM ( 'NONE', ( #204 ), #10 ) ;
#199 =( LENGTH_UNIT ( ) NAMED_UNIT ( * ) SI_UNIT ( .MILLI., .METRE. ) );
#200 = EDGE_CURVE ( 'NONE', #154, #11, #100, .T. ) ;
#201 = CARTESIAN_POINT ( 'NONE',  ( 0.0000000000000000000, 3.255827928899130600E-018, 910.1057631862357800 ) ) ;
#202 = UNCERTAINTY_MEASURE_WITH_UNIT (LENGTH_MEASURE( 1.000000000000000100E-005 ), #196, 'distance_accuracy_value', 'NONE');
#203 = DIRECTION ( 'NONE',  ( -0.0000000000000000000, 3.577417109744076300E-021, 1.000000000000000000 ) ) ;
#204 = PRESENTATION_STYLE_ASSIGNMENT (( #129 ) ) ;
#205 = ORIENTED_EDGE ( 'NONE', *, *, #128, .T. ) ;
#206 = PRODUCT_DEFINITION_FORMATION_WITH_SPECIFIED_SOURCE ( 'ANY', '', #62, .NOT_KNOWN. ) ;
#207 = AXIS2_PLACEMENT_3D ( 'NONE', #153, #168, #37 ) ;
#208 = CONICAL_SURFACE ( 'NONE', #160, 2414.213562373050500, 1.178097245096166000 ) ;
#209 =( GEOMETRIC_REPRESENTATION_CONTEXT ( 3 ) GLOBAL_UNCERTAINTY_ASSIGNED_CONTEXT ( ( #149 ) ) GLOBAL_UNIT_ASSIGNED_CONTEXT ( ( #16, #35, #69 ) ) REPRESENTATION_CONTEXT ( 'NONE', 'WORKASPACE' ) );
#210 = EDGE_CURVE ( 'NONE', #117, #11, #56, .T. ) ;
#211 = PRODUCT_DEFINITION_SHAPE ( 'NONE', 'NONE',  #191 ) ;
#212 = CIRCLE ( 'NONE', #68, 2.400300000000011600 ) ;
#213 = MECHANICAL_DESIGN_GEOMETRIC_PRESENTATION_REPRESENTATION (  '', ( #198 ), #209 ) ;
#214 = DIRECTION ( 'NONE',  ( 0.0000000000000000000, -1.000000000000000000, 0.0000000000000000000 ) ) ;
ENDSEC;
END-ISO-10303-21;
