ISO-10303-21;
HEADER;
FILE_DESCRIPTION (( 'STEP AP214' ),
    '1' );
FILE_NAME ('03-0297.STEP',
    '2020-07-23T06:27:25',
    ( '' ),
    ( '' ),
    'SwSTEP 2.0',
    'SolidWorks 2014',
    '' );
FILE_SCHEMA (( 'AUTOMOTIVE_DESIGN' ));
ENDSEC;

DATA;
#1 = CONICAL_SURFACE ( 'NONE', #132, 2414.213562373088700, 1.178097245096171500 ) ;
#2 = VERTEX_POINT ( 'NONE', #136 ) ;
#3 = CLOSED_SHELL ( 'NONE', ( #95, #21, #187, #10, #73, #77, #24 ) ) ;
#4 = STYLED_ITEM ( 'NONE', ( #179 ), #212 ) ;
#5 = CARTESIAN_POINT ( 'NONE',  ( 0.0000000000000000000, -9.549053994018002600E-038, 1.415316508337318800E-016 ) ) ;
#6 = CIRCLE ( 'NONE', #143, 1.849119999999995700 ) ;
#7 = CIRCLE ( 'NONE', #163, 2.311400000000010100 ) ;
#8 = ORIENTED_EDGE ( 'NONE', *, *, #188, .F. ) ;
#9 = DIRECTION ( 'NONE',  ( 0.0000000000000000000, 6.746938891595356500E-022, -1.000000000000000000 ) ) ;
#10 = ADVANCED_FACE ( 'NONE', ( #124 ), #82, .F. ) ;
#11 =( NAMED_UNIT ( * ) PLANE_ANGLE_UNIT ( ) SI_UNIT ( $, .RADIAN. ) );
#12 = SHAPE_DEFINITION_REPRESENTATION ( #17, #212 ) ;
#13 =( NAMED_UNIT ( * ) PLANE_ANGLE_UNIT ( ) SI_UNIT ( $, .RADIAN. ) );
#14 = CARTESIAN_POINT ( 'NONE',  ( 0.0000000000000000000, -9.549053994018002600E-038, 1.415316508337318800E-016 ) ) ;
#15 = APPLICATION_PROTOCOL_DEFINITION ( 'draft international standard', 'automotive_design', 1998, #113 ) ;
#16 = ORIENTED_EDGE ( 'NONE', *, *, #155, .T. ) ;
#17 = PRODUCT_DEFINITION_SHAPE ( 'NONE', 'NONE',  #46 ) ;
#18 = EDGE_CURVE ( 'NONE', #32, #51, #196, .T. ) ;
#19 = UNCERTAINTY_MEASURE_WITH_UNIT (LENGTH_MEASURE( 1.000000000000000100E-005 ), #111, 'distance_accuracy_value', 'NONE');
#20 = EDGE_CURVE ( 'NONE', #2, #36, #206, .T. ) ;
#21 = ADVANCED_FACE ( 'NONE', ( #138 ), #72, .T. ) ;
#22 = ORIENTED_EDGE ( 'NONE', *, *, #171, .T. ) ;
#23 = DIRECTION ( 'NONE',  ( 0.0000000000000000000, 1.000000000000000000, 6.746938891603462700E-022 ) ) ;
#24 = ADVANCED_FACE ( 'NONE', ( #164 ), #120, .T. ) ;
#25 = CARTESIAN_POINT ( 'NONE',  ( 0.0000000000000000000, -9.549053994018002600E-038, 1.415316508337318800E-016 ) ) ;
#26 = AXIS2_PLACEMENT_3D ( 'NONE', #43, #9, #128 ) ;
#27 = CARTESIAN_POINT ( 'NONE',  ( 0.0000000000000000000, 0.0000000000000000000, 0.0000000000000000000 ) ) ;
#28 = VECTOR ( 'NONE', #198, 1000.000000000000100 ) ;
#29 = DIRECTION ( 'NONE',  ( 0.0000000000000000000, 6.746938891595356500E-022, -1.000000000000000000 ) ) ;
#30 = CARTESIAN_POINT ( 'NONE',  ( 0.0000000000000000000, 0.0000000000000000000, 0.0000000000000000000 ) ) ;
#31 = CONICAL_SURFACE ( 'NONE', #105, 1.849119999999995700, 0.7853981633974456100 ) ;
#32 = VERTEX_POINT ( 'NONE', #165 ) ;
#33 =( NAMED_UNIT ( * ) SI_UNIT ( $, .STERADIAN. ) SOLID_ANGLE_UNIT ( ) );
#34 = FACE_OUTER_BOUND ( 'NONE', #126, .T. ) ;
#35 = EDGE_CURVE ( 'NONE', #145, #32, #7, .T. ) ;
#36 = VERTEX_POINT ( 'NONE', #90 ) ;
#37 = VECTOR ( 'NONE', #119, 1000.000000000000000 ) ;
#38 = ORIENTED_EDGE ( 'NONE', *, *, #123, .T. ) ;
#39 = CARTESIAN_POINT ( 'NONE',  ( 0.0000000000000000000, 5.848409450257997800E-020, -86.68241322806918000 ) ) ;
#40 = DIRECTION ( 'NONE',  ( 0.0000000000000000000, -0.9238795325112865200, 0.3826834323650906100 ) ) ;
#41 = COLOUR_RGB ( '',0.7921568627450980000, 0.8196078431372548800, 0.9333333333333333500 ) ;
#42 = DIRECTION ( 'NONE',  ( 0.0000000000000000000, -1.000000000000000000, 0.0000000000000000000 ) ) ;
#43 = CARTESIAN_POINT ( 'NONE',  ( 0.0000000000000000000, 3.118974910806781600E-022, -0.4622800000000117900 ) ) ;
#44 = DIRECTION ( 'NONE',  ( 0.0000000000000000000, -1.000000000000000000, 0.0000000000000000000 ) ) ;
#45 = AXIS2_PLACEMENT_3D ( 'NONE', #159, #29, #175 ) ;
#46 = PRODUCT_DEFINITION ( 'UNKNOWN', '', #127, #194 ) ;
#47 = DIRECTION ( 'NONE',  ( -0.0000000000000000000, -6.746938891595357400E-022, 1.000000000000000000 ) ) ;
#48 = CARTESIAN_POINT ( 'NONE',  ( 0.0000000000000000000, 1.849119999999995700, 1.415328984236961900E-016 ) ) ;
#49 = MANIFOLD_SOLID_BREP ( '¸ðµû±â1', #3 ) ;
#50 = VERTEX_POINT ( 'NONE', #94 ) ;
#51 = VERTEX_POINT ( 'NONE', #110 ) ;
#52 = LINE ( 'NONE', #75, #125 ) ;
#53 = AXIS2_PLACEMENT_3D ( 'NONE', #78, #47, #112 ) ;
#54 = EDGE_CURVE ( 'NONE', #51, #36, #193, .T. ) ;
#55 = FACE_OUTER_BOUND ( 'NONE', #109, .T. ) ;
#56 = PRESENTATION_STYLE_ASSIGNMENT (( #209 ) ) ;
#57 = CARTESIAN_POINT ( 'NONE',  ( 0.0000000000000000000, -2.311400000000010600, -85.72499999999999400 ) ) ;
#58 = EDGE_CURVE ( 'NONE', #50, #32, #186, .T. ) ;
#59 = UNCERTAINTY_MEASURE_WITH_UNIT (LENGTH_MEASURE( 1.000000000000000100E-005 ), #62, 'distance_accuracy_value', 'NONE');
#60 = FILL_AREA_STYLE_COLOUR ( '', #41 ) ;
#61 = ORIENTED_EDGE ( 'NONE', *, *, #54, .F. ) ;
#62 =( LENGTH_UNIT ( ) NAMED_UNIT ( * ) SI_UNIT ( .MILLI., .METRE. ) );
#63 = FILL_AREA_STYLE_COLOUR ( '', #115 ) ;
#64 = DIRECTION ( 'NONE',  ( 0.0000000000000000000, 1.000000000000000000, 6.746938891595357400E-022 ) ) ;
#65 =( NAMED_UNIT ( * ) PLANE_ANGLE_UNIT ( ) SI_UNIT ( $, .RADIAN. ) );
#66 = CIRCLE ( 'NONE', #26, 2.311400000000005200 ) ;
#67 = DIRECTION ( 'NONE',  ( 0.0000000000000000000, 1.000000000000000000, 6.746938891603462700E-022 ) ) ;
#68 = AXIS2_PLACEMENT_3D ( 'NONE', #152, #166, #64 ) ;
#69 = VECTOR ( 'NONE', #210, 1000.000000000000100 ) ;
#70 = EDGE_LOOP ( 'NONE', ( #200, #76, #83, #16 ) ) ;
#71 = EDGE_LOOP ( 'NONE', ( #22, #144 ) ) ;
#72 = CYLINDRICAL_SURFACE ( 'NONE', #53, 2.311400000000005200 ) ;
#73 = ADVANCED_FACE ( 'NONE', ( #108 ), #1, .T. ) ;
#74 = AXIS2_PLACEMENT_3D ( 'NONE', #30, #151, #177 ) ;
#75 = CARTESIAN_POINT ( 'NONE',  ( 0.0000000000000000000, 5.848409450257997800E-020, -86.68241322806918000 ) ) ;
#76 = ORIENTED_EDGE ( 'NONE', *, *, #172, .T. ) ;
#77 = ADVANCED_FACE ( 'NONE', ( #88 ), #102, .T. ) ;
#78 = CARTESIAN_POINT ( 'NONE',  ( 0.0000000000000000000, 0.0000000000000000000, 0.0000000000000000000 ) ) ;
#79 = SURFACE_STYLE_USAGE ( .BOTH. , #195 ) ;
#80 = EDGE_LOOP ( 'NONE', ( #170, #38, #116 ) ) ;
#81 = DIRECTION ( 'NONE',  ( 0.0000000000000000000, -1.000000000000000000, 0.0000000000000000000 ) ) ;
#82 = PLANE ( 'NONE',  #68 ) ;
#83 = ORIENTED_EDGE ( 'NONE', *, *, #89, .T. ) ;
#84 = ORIENTED_EDGE ( 'NONE', *, *, #89, .F. ) ;
#85 = STYLED_ITEM ( 'NONE', ( #56 ), #49 ) ;
#86 = CIRCLE ( 'NONE', #139, 2.311400000000010100 ) ;
#87 = CIRCLE ( 'NONE', #121, 1.849119999999995700 ) ;
#88 = FACE_OUTER_BOUND ( 'NONE', #70, .T. ) ;
#89 = EDGE_CURVE ( 'NONE', #145, #36, #214, .T. ) ;
#90 = CARTESIAN_POINT ( 'NONE',  ( 0.0000000000000000000, -2.311400000000005200, -0.4622800000000117900 ) ) ;
#91 = SURFACE_SIDE_STYLE ('',( #154 ) ) ;
#92 = ORIENTED_EDGE ( 'NONE', *, *, #123, .F. ) ;
#93 = EDGE_LOOP ( 'NONE', ( #169, #106, #174, #84 ) ) ;
#94 = CARTESIAN_POINT ( 'NONE',  ( 0.0000000000000000000, 5.848409450257997800E-020, -86.68241322806918000 ) ) ;
#95 = ADVANCED_FACE ( 'NONE', ( #34 ), #31, .T. ) ;
#96 = DIRECTION ( 'NONE',  ( -0.0000000000000000000, -6.746938891595357400E-022, 1.000000000000000000 ) ) ;
#97 = FILL_AREA_STYLE ('',( #60 ) ) ;
#98 =( LENGTH_UNIT ( ) NAMED_UNIT ( * ) SI_UNIT ( .MILLI., .METRE. ) );
#99 = FILL_AREA_STYLE ('',( #63 ) ) ;
#100 = ORIENTED_EDGE ( 'NONE', *, *, #58, .T. ) ;
#101 =( GEOMETRIC_REPRESENTATION_CONTEXT ( 3 ) GLOBAL_UNCERTAINTY_ASSIGNED_CONTEXT ( ( #19 ) ) GLOBAL_UNIT_ASSIGNED_CONTEXT ( ( #111, #65, #33 ) ) REPRESENTATION_CONTEXT ( 'NONE', 'WORKASPACE' ) );
#102 = CYLINDRICAL_SURFACE ( 'NONE', #199, 2.311400000000005200 ) ;
#103 = PRESENTATION_LAYER_ASSIGNMENT (  '', '', ( #85 ) ) ;
#104 = ORIENTED_EDGE ( 'NONE', *, *, #155, .F. ) ;
#105 = AXIS2_PLACEMENT_3D ( 'NONE', #25, #133, #107 ) ;
#106 = ORIENTED_EDGE ( 'NONE', *, *, #18, .T. ) ;
#107 = DIRECTION ( 'NONE',  ( 0.0000000000000000000, 1.000000000000000000, 6.746938891603462700E-022 ) ) ;
#108 = FACE_OUTER_BOUND ( 'NONE', #80, .T. ) ;
#109 = EDGE_LOOP ( 'NONE', ( #92, #100, #180 ) ) ;
#110 = CARTESIAN_POINT ( 'NONE',  ( 2.830648611549198500E-016, 2.311400000000005200, -0.4622800000000117900 ) ) ;
#111 =( LENGTH_UNIT ( ) NAMED_UNIT ( * ) SI_UNIT ( .MILLI., .METRE. ) );
#112 = DIRECTION ( 'NONE',  ( 0.0000000000000000000, -1.000000000000000000, -6.746938891595356500E-022 ) ) ;
#113 = APPLICATION_CONTEXT ( 'automotive_design' ) ;
#114 = APPLICATION_CONTEXT ( 'automotive_design' ) ;
#115 = COLOUR_RGB ( '',0.7921568627450980000, 0.8196078431372548800, 0.9333333333333333500 ) ;
#116 = ORIENTED_EDGE ( 'NONE', *, *, #172, .F. ) ;
#117 =( GEOMETRIC_REPRESENTATION_CONTEXT ( 3 ) GLOBAL_UNCERTAINTY_ASSIGNED_CONTEXT ( ( #202 ) ) GLOBAL_UNIT_ASSIGNED_CONTEXT ( ( #98, #13, #118 ) ) REPRESENTATION_CONTEXT ( 'NONE', 'WORKASPACE' ) );
#118 =( NAMED_UNIT ( * ) SI_UNIT ( $, .STERADIAN. ) SOLID_ANGLE_UNIT ( ) );
#119 = DIRECTION ( 'NONE',  ( -0.0000000000000000000, -6.746938891595357400E-022, 1.000000000000000000 ) ) ;
#120 = CONICAL_SURFACE ( 'NONE', #183, 1.849119999999995700, 0.7853981633974456100 ) ;
#121 = AXIS2_PLACEMENT_3D ( 'NONE', #5, #185, #23 ) ;
#122 = ORIENTED_EDGE ( 'NONE', *, *, #20, .F. ) ;
#123 = EDGE_CURVE ( 'NONE', #50, #145, #52, .T. ) ;
#124 = FACE_OUTER_BOUND ( 'NONE', #71, .T. ) ;
#125 = VECTOR ( 'NONE', #40, 999.9999999999998900 ) ;
#126 = EDGE_LOOP ( 'NONE', ( #161, #142, #61, #8 ) ) ;
#127 = PRODUCT_DEFINITION_FORMATION_WITH_SPECIFIED_SOURCE ( 'ANY', '', #137, .NOT_KNOWN. ) ;
#128 = DIRECTION ( 'NONE',  ( 0.0000000000000000000, 1.000000000000000000, 0.0000000000000000000 ) ) ;
#129 = DIRECTION ( 'NONE',  ( 0.0000000000000000000, -1.000000000000000000, -6.746938891595356500E-022 ) ) ;
#130 = VECTOR ( 'NONE', #146, 1000.000000000000000 ) ;
#131 = CARTESIAN_POINT ( 'NONE',  ( 0.0000000000000000000, -6.162097946569557400E-019, 913.3175867719309100 ) ) ;
#132 = AXIS2_PLACEMENT_3D ( 'NONE', #173, #149, #44 ) ;
#133 = DIRECTION ( 'NONE',  ( 0.0000000000000000000, 6.746938891595356500E-022, -1.000000000000000000 ) ) ;
#134 = CARTESIAN_POINT ( 'NONE',  ( 0.0000000000000000000, 5.783813364820119300E-020, -85.72499999999999400 ) ) ;
#135 = PRODUCT_CONTEXT ( 'NONE', #114, 'mechanical' ) ;
#136 = CARTESIAN_POINT ( 'NONE',  ( 2.547583750394273400E-016, -1.849119999999995700, 1.415304032437675500E-016 ) ) ;
#137 = PRODUCT ( '03-0297', '03-0297', '', ( #135 ) ) ;
#138 = FACE_OUTER_BOUND ( 'NONE', #93, .T. ) ;
#139 = AXIS2_PLACEMENT_3D ( 'NONE', #162, #197, #81 ) ;
#140 = PRODUCT_RELATED_PRODUCT_CATEGORY ( 'part', '', ( #137 ) ) ;
#141 = VERTEX_POINT ( 'NONE', #205 ) ;
#142 = ORIENTED_EDGE ( 'NONE', *, *, #20, .T. ) ;
#143 = AXIS2_PLACEMENT_3D ( 'NONE', #204, #147, #208 ) ;
#144 = ORIENTED_EDGE ( 'NONE', *, *, #158, .T. ) ;
#145 = VERTEX_POINT ( 'NONE', #57 ) ;
#146 = DIRECTION ( 'NONE',  ( -0.0000000000000000000, -6.746938891595357400E-022, 1.000000000000000000 ) ) ;
#147 = DIRECTION ( 'NONE',  ( -0.0000000000000000000, -6.746938891595357400E-022, 1.000000000000000000 ) ) ;
#148 = CARTESIAN_POINT ( 'NONE',  ( 0.0000000000000000000, -2.311400000000005200, -1.559487455403354300E-021 ) ) ;
#149 = DIRECTION ( 'NONE',  ( -0.0000000000000000000, -6.746938891595357400E-022, 1.000000000000000000 ) ) ;
#150 = SURFACE_STYLE_FILL_AREA ( #99 ) ;
#151 = DIRECTION ( 'NONE',  ( 0.0000000000000000000, 0.0000000000000000000, 1.000000000000000000 ) ) ;
#152 = CARTESIAN_POINT ( 'NONE',  ( 0.0000000000000000000, 2.311399999999999900, 1.415332103211872700E-016 ) ) ;
#153 = PRESENTATION_LAYER_ASSIGNMENT (  '', '', ( #4 ) ) ;
#154 = SURFACE_STYLE_FILL_AREA ( #97 ) ;
#155 = EDGE_CURVE ( 'NONE', #36, #51, #66, .T. ) ;
#156 = LINE ( 'NONE', #48, #69 ) ;
#157 = ORIENTED_EDGE ( 'NONE', *, *, #188, .T. ) ;
#158 = EDGE_CURVE ( 'NONE', #2, #141, #87, .T. ) ;
#159 = CARTESIAN_POINT ( 'NONE',  ( 0.0000000000000000000, 3.118974910806781600E-022, -0.4622800000000117900 ) ) ;
#160 = DIRECTION ( 'NONE',  ( 0.0000000000000000000, -1.000000000000000000, 0.0000000000000000000 ) ) ;
#161 = ORIENTED_EDGE ( 'NONE', *, *, #158, .F. ) ;
#162 = CARTESIAN_POINT ( 'NONE',  ( 0.0000000000000000000, 5.783813364820119300E-020, -85.72499999999999400 ) ) ;
#163 = AXIS2_PLACEMENT_3D ( 'NONE', #134, #189, #42 ) ;
#164 = FACE_OUTER_BOUND ( 'NONE', #203, .T. ) ;
#165 = CARTESIAN_POINT ( 'NONE',  ( 2.830648611549205400E-016, 2.311400000000010600, -85.72499999999999400 ) ) ;
#166 = DIRECTION ( 'NONE',  ( 0.0000000000000000000, 6.746938891595357400E-022, -1.000000000000000000 ) ) ;
#167 = DIRECTION ( 'NONE',  ( 0.0000000000000000000, 6.746938891595356500E-022, -1.000000000000000000 ) ) ;
#168 = MECHANICAL_DESIGN_GEOMETRIC_PRESENTATION_REPRESENTATION (  '', ( #85 ), #201 ) ;
#169 = ORIENTED_EDGE ( 'NONE', *, *, #35, .T. ) ;
#170 = ORIENTED_EDGE ( 'NONE', *, *, #58, .F. ) ;
#171 = EDGE_CURVE ( 'NONE', #141, #2, #6, .T. ) ;
#172 = EDGE_CURVE ( 'NONE', #32, #145, #86, .T. ) ;
#173 = CARTESIAN_POINT ( 'NONE',  ( 0.0000000000000000000, -6.162097946569557400E-019, 913.3175867719309100 ) ) ;
#174 = ORIENTED_EDGE ( 'NONE', *, *, #54, .T. ) ;
#175 = DIRECTION ( 'NONE',  ( 0.0000000000000000000, 1.000000000000000000, 0.0000000000000000000 ) ) ;
#176 = CARTESIAN_POINT ( 'NONE',  ( 2.830648611549198500E-016, 2.311400000000005200, 1.559487455403354300E-021 ) ) ;
#177 = DIRECTION ( 'NONE',  ( 1.000000000000000000, 0.0000000000000000000, 0.0000000000000000000 ) ) ;
#178 = APPLICATION_PROTOCOL_DEFINITION ( 'draft international standard', 'automotive_design', 1998, #114 ) ;
#179 = PRESENTATION_STYLE_ASSIGNMENT (( #79 ) ) ;
#180 = ORIENTED_EDGE ( 'NONE', *, *, #35, .F. ) ;
#181 = MECHANICAL_DESIGN_GEOMETRIC_PRESENTATION_REPRESENTATION (  '', ( #4 ), #117 ) ;
#182 = VECTOR ( 'NONE', #191, 999.9999999999998900 ) ;
#183 = AXIS2_PLACEMENT_3D ( 'NONE', #14, #167, #67 ) ;
#184 = CONICAL_SURFACE ( 'NONE', #207, 2414.213562373088700, 1.178097245096171500 ) ;
#185 = DIRECTION ( 'NONE',  ( -0.0000000000000000000, -6.746938891595357400E-022, 1.000000000000000000 ) ) ;
#186 = LINE ( 'NONE', #39, #182 ) ;
#187 = ADVANCED_FACE ( 'NONE', ( #55 ), #184, .T. ) ;
#188 = EDGE_CURVE ( 'NONE', #141, #51, #156, .T. ) ;
#189 = DIRECTION ( 'NONE',  ( -0.0000000000000000000, -6.746938891595357400E-022, 1.000000000000000000 ) ) ;
#190 = DIRECTION ( 'NONE',  ( -0.0000000000000000000, -6.746938891595357400E-022, 1.000000000000000000 ) ) ;
#191 = DIRECTION ( 'NONE',  ( 1.131426112287700300E-016, 0.9238795325112865200, 0.3826834323650906100 ) ) ;
#192 =( NAMED_UNIT ( * ) SI_UNIT ( $, .STERADIAN. ) SOLID_ANGLE_UNIT ( ) );
#193 = CIRCLE ( 'NONE', #45, 2.311400000000005200 ) ;
#194 = PRODUCT_DEFINITION_CONTEXT ( 'detailed design', #113, 'design' ) ;
#195 = SURFACE_SIDE_STYLE ('',( #150 ) ) ;
#196 = LINE ( 'NONE', #176, #37 ) ;
#197 = DIRECTION ( 'NONE',  ( -0.0000000000000000000, -6.746938891595357400E-022, 1.000000000000000000 ) ) ;
#198 = DIRECTION ( 'NONE',  ( 8.659560562354908200E-017, -0.7071067811865455700, -0.7071067811865495700 ) ) ;
#199 = AXIS2_PLACEMENT_3D ( 'NONE', #27, #96, #129 ) ;
#200 = ORIENTED_EDGE ( 'NONE', *, *, #18, .F. ) ;
#201 =( GEOMETRIC_REPRESENTATION_CONTEXT ( 3 ) GLOBAL_UNCERTAINTY_ASSIGNED_CONTEXT ( ( #59 ) ) GLOBAL_UNIT_ASSIGNED_CONTEXT ( ( #62, #11, #192 ) ) REPRESENTATION_CONTEXT ( 'NONE', 'WORKASPACE' ) );
#202 = UNCERTAINTY_MEASURE_WITH_UNIT (LENGTH_MEASURE( 1.000000000000000100E-005 ), #98, 'distance_accuracy_value', 'NONE');
#203 = EDGE_LOOP ( 'NONE', ( #122, #211, #157, #104 ) ) ;
#204 = CARTESIAN_POINT ( 'NONE',  ( 0.0000000000000000000, -9.549053994018002600E-038, 1.415316508337318800E-016 ) ) ;
#205 = CARTESIAN_POINT ( 'NONE',  ( 0.0000000000000000000, 1.849119999999995700, 1.415328984236961900E-016 ) ) ;
#206 = LINE ( 'NONE', #213, #28 ) ;
#207 = AXIS2_PLACEMENT_3D ( 'NONE', #131, #190, #160 ) ;
#208 = DIRECTION ( 'NONE',  ( 0.0000000000000000000, 1.000000000000000000, 6.746938891603462700E-022 ) ) ;
#209 = SURFACE_STYLE_USAGE ( .BOTH. , #91 ) ;
#210 = DIRECTION ( 'NONE',  ( 0.0000000000000000000, 0.7071067811865455700, -0.7071067811865495700 ) ) ;
#211 = ORIENTED_EDGE ( 'NONE', *, *, #171, .F. ) ;
#212 = ADVANCED_BREP_SHAPE_REPRESENTATION ( '03-0297', ( #49, #74 ), #101 ) ;
#213 = CARTESIAN_POINT ( 'NONE',  ( 2.264518889239348700E-016, -1.849119999999995700, 1.415304032437675500E-016 ) ) ;
#214 = LINE ( 'NONE', #148, #130 ) ;
ENDSEC;
END-ISO-10303-21;
