ISO-10303-21;
HEADER;
FILE_DESCRIPTION (( 'STEP AP214' ),
    '1' );
FILE_NAME ('03-0298.STEP',
    '2020-07-23T06:28:06',
    ( '' ),
    ( '' ),
    'SwSTEP 2.0',
    'SolidWorks 2014',
    '' );
FILE_SCHEMA (( 'AUTOMOTIVE_DESIGN' ));
ENDSEC;

DATA;
#1 =( NAMED_UNIT ( * ) PLANE_ANGLE_UNIT ( ) SI_UNIT ( $, .RADIAN. ) );
#2 = MANIFOLD_SOLID_BREP ( '¸ðµû±â1', #36 ) ;
#3 = ORIENTED_EDGE ( 'NONE', *, *, #159, .T. ) ;
#4 = PRESENTATION_LAYER_ASSIGNMENT (  '', '', ( #61 ) ) ;
#5 = ADVANCED_FACE ( 'NONE', ( #190 ), #39, .T. ) ;
#6 = DIRECTION ( 'NONE',  ( -0.0000000000000000000, -1.665645011118541800E-020, 1.000000000000000000 ) ) ;
#7 = VECTOR ( 'NONE', #105, 1000.000000000000100 ) ;
#8 = UNCERTAINTY_MEASURE_WITH_UNIT (LENGTH_MEASURE( 1.000000000000000100E-005 ), #48, 'distance_accuracy_value', 'NONE');
#9 = APPLICATION_CONTEXT ( 'automotive_design' ) ;
#10 = ORIENTED_EDGE ( 'NONE', *, *, #85, .F. ) ;
#11 = UNCERTAINTY_MEASURE_WITH_UNIT (LENGTH_MEASURE( 1.000000000000000100E-005 ), #75, 'distance_accuracy_value', 'NONE');
#12 = AXIS2_PLACEMENT_3D ( 'NONE', #166, #38, #15 ) ;
#13 = EDGE_LOOP ( 'NONE', ( #83, #179, #173 ) ) ;
#14 = LINE ( 'NONE', #16, #41 ) ;
#15 = DIRECTION ( 'NONE',  ( 0.0000000000000000000, 1.000000000000000000, 1.665645011118541800E-020 ) ) ;
#16 = CARTESIAN_POINT ( 'NONE',  ( 0.0000000000000000000, 1.828799999999998400, 1.399885521360286700E-016 ) ) ;
#17 = DIRECTION ( 'NONE',  ( 0.0000000000000000000, 1.000000000000000000, 0.0000000000000000000 ) ) ;
#18 = PRODUCT_DEFINITION_CONTEXT ( 'detailed design', #9, 'design' ) ;
#19 = AXIS2_PLACEMENT_3D ( 'NONE', #42, #193, #147 ) ;
#20 = UNCERTAINTY_MEASURE_WITH_UNIT (LENGTH_MEASURE( 1.000000000000000100E-005 ), #67, 'distance_accuracy_value', 'NONE');
#21 = VERTEX_POINT ( 'NONE', #93 ) ;
#22 = AXIS2_PLACEMENT_3D ( 'NONE', #192, #204, #131 ) ;
#23 = VERTEX_POINT ( 'NONE', #34 ) ;
#24 = CONICAL_SURFACE ( 'NONE', #84, 1.828799999999998400, 0.7853981633974530500 ) ;
#25 = ORIENTED_EDGE ( 'NONE', *, *, #65, .T. ) ;
#26 = FACE_OUTER_BOUND ( 'NONE', #102, .T. ) ;
#27 = DIRECTION ( 'NONE',  ( 0.0000000000000000000, -1.000000000000000000, 0.0000000000000000000 ) ) ;
#28 = VERTEX_POINT ( 'NONE', #114 ) ;
#29 = FILL_AREA_STYLE ('',( #133 ) ) ;
#30 = VECTOR ( 'NONE', #63, 1000.000000000000000 ) ;
#31 = CARTESIAN_POINT ( 'NONE',  ( 0.0000000000000000000, 0.0000000000000000000, 0.0000000000000000000 ) ) ;
#32 = DIRECTION ( 'NONE',  ( 0.0000000000000000000, 1.000000000000000000, 1.665645011118377500E-020 ) ) ;
#33 = AXIS2_PLACEMENT_3D ( 'NONE', #196, #117, #135 ) ;
#34 = CARTESIAN_POINT ( 'NONE',  ( 2.519588324565766800E-016, -1.828799999999998400, 1.399276295041020100E-016 ) ) ;
#35 =( NAMED_UNIT ( * ) SI_UNIT ( $, .STERADIAN. ) SOLID_ANGLE_UNIT ( ) );
#36 = CLOSED_SHELL ( 'NONE', ( #172, #55, #153, #70, #104, #5, #189 ) ) ;
#37 = CARTESIAN_POINT ( 'NONE',  ( 0.0000000000000000000, 1.427874185781369900E-018, -85.72499999999999400 ) ) ;
#38 = DIRECTION ( 'NONE',  ( 0.0000000000000000000, 1.665645011118541800E-020, -1.000000000000000000 ) ) ;
#39 = CYLINDRICAL_SURFACE ( 'NONE', #19, 2.286000000000004500 ) ;
#40 = AXIS2_PLACEMENT_3D ( 'NONE', #81, #150, #164 ) ;
#41 = VECTOR ( 'NONE', #168, 1000.000000000000100 ) ;
#42 = CARTESIAN_POINT ( 'NONE',  ( 0.0000000000000000000, 0.0000000000000000000, 0.0000000000000000000 ) ) ;
#43 = PRODUCT_DEFINITION_SHAPE ( 'NONE', 'NONE',  #126 ) ;
#44 = APPLICATION_CONTEXT ( 'automotive_design' ) ;
#45 = PRESENTATION_STYLE_ASSIGNMENT (( #177 ) ) ;
#46 = APPLICATION_PROTOCOL_DEFINITION ( 'draft international standard', 'automotive_design', 1998, #44 ) ;
#47 = AXIS2_PLACEMENT_3D ( 'NONE', #174, #59, #201 ) ;
#48 =( LENGTH_UNIT ( ) NAMED_UNIT ( * ) SI_UNIT ( .MILLI., .METRE. ) );
#49 = VECTOR ( 'NONE', #62, 1000.000000000000200 ) ;
#50 = ORIENTED_EDGE ( 'NONE', *, *, #85, .T. ) ;
#51 = FACE_OUTER_BOUND ( 'NONE', #187, .T. ) ;
#52 = STYLED_ITEM ( 'NONE', ( #45 ), #171 ) ;
#53 = EDGE_CURVE ( 'NONE', #21, #125, #188, .T. ) ;
#54 = CIRCLE ( 'NONE', #40, 1.828799999999998400 ) ;
#55 = ADVANCED_FACE ( 'NONE', ( #51 ), #175, .T. ) ;
#56 = AXIS2_PLACEMENT_3D ( 'NONE', #127, #6, #27 ) ;
#57 = VERTEX_POINT ( 'NONE', #64 ) ;
#58 = FACE_OUTER_BOUND ( 'NONE', #122, .T. ) ;
#59 = DIRECTION ( 'NONE',  ( 0.0000000000000000000, 1.665645011118541800E-020, -1.000000000000000000 ) ) ;
#60 = ORIENTED_EDGE ( 'NONE', *, *, #90, .F. ) ;
#61 = STYLED_ITEM ( 'NONE', ( #146 ), #2 ) ;
#62 = DIRECTION ( 'NONE',  ( 0.0000000000000000000, -0.9238795325112841800, 0.3826834323650959400 ) ) ;
#63 = DIRECTION ( 'NONE',  ( -0.0000000000000000000, -1.665645011118541800E-020, 1.000000000000000000 ) ) ;
#64 = CARTESIAN_POINT ( 'NONE',  ( 0.0000000000000000000, 1.828799999999998400, 1.399885521360286700E-016 ) ) ;
#65 = EDGE_CURVE ( 'NONE', #23, #57, #115, .T. ) ;
#66 = ORIENTED_EDGE ( 'NONE', *, *, #210, .T. ) ;
#67 =( LENGTH_UNIT ( ) NAMED_UNIT ( * ) SI_UNIT ( .MILLI., .METRE. ) );
#68 = ORIENTED_EDGE ( 'NONE', *, *, #65, .F. ) ;
#69 = LINE ( 'NONE', #184, #208 ) ;
#70 = ADVANCED_FACE ( 'NONE', ( #26 ), #121, .F. ) ;
#71 = ORIENTED_EDGE ( 'NONE', *, *, #53, .T. ) ;
#72 = SHAPE_DEFINITION_REPRESENTATION ( #43, #171 ) ;
#73 = DIRECTION ( 'NONE',  ( 0.0000000000000000000, 1.665645011118541800E-020, -1.000000000000000000 ) ) ;
#74 = SURFACE_STYLE_USAGE ( .BOTH. , #178 ) ;
#75 =( LENGTH_UNIT ( ) NAMED_UNIT ( * ) SI_UNIT ( .MILLI., .METRE. ) );
#76 = DIRECTION ( 'NONE',  ( 0.0000000000000000000, -1.000000000000000000, -1.665645011118542100E-020 ) ) ;
#77 = PRODUCT_DEFINITION_FORMATION_WITH_SPECIFIED_SOURCE ( 'ANY', '', #195, .NOT_KNOWN. ) ;
#78 = DIRECTION ( 'NONE',  ( 0.0000000000000000000, 1.665645011118541800E-020, -1.000000000000000000 ) ) ;
#79 = ORIENTED_EDGE ( 'NONE', *, *, #119, .F. ) ;
#80 = CARTESIAN_POINT ( 'NONE',  ( 2.799542582850862700E-016, 2.286000000000010700, -85.72499999999999400 ) ) ;
#81 = CARTESIAN_POINT ( 'NONE',  ( 0.0000000000000000000, -2.331204957401176900E-036, 1.399580908200653400E-016 ) ) ;
#82 = ORIENTED_EDGE ( 'NONE', *, *, #159, .F. ) ;
#83 = ORIENTED_EDGE ( 'NONE', *, *, #53, .F. ) ;
#84 = AXIS2_PLACEMENT_3D ( 'NONE', #176, #73, #32 ) ;
#85 = EDGE_CURVE ( 'NONE', #57, #203, #14, .T. ) ;
#86 = ORIENTED_EDGE ( 'NONE', *, *, #124, .F. ) ;
#87 = SURFACE_STYLE_FILL_AREA ( #29 ) ;
#88 = VECTOR ( 'NONE', #113, 1000.000000000000200 ) ;
#89 = CARTESIAN_POINT ( 'NONE',  ( 2.239634066280677700E-016, -1.828799999999998400, 1.399276295041020100E-016 ) ) ;
#90 = EDGE_CURVE ( 'NONE', #125, #203, #69, .T. ) ;
#91 = CARTESIAN_POINT ( 'NONE',  ( 0.0000000000000000000, -2.286000000000004500, -3.807664495416994400E-020 ) ) ;
#92 = CARTESIAN_POINT ( 'NONE',  ( 0.0000000000000000000, -2.286000000000010700, -85.72499999999999400 ) ) ;
#93 = CARTESIAN_POINT ( 'NONE',  ( 0.0000000000000000000, 1.443646048531052300E-018, -86.67189220358491800 ) ) ;
#94 = ORIENTED_EDGE ( 'NONE', *, *, #149, .T. ) ;
#95 = MECHANICAL_DESIGN_GEOMETRIC_PRESENTATION_REPRESENTATION (  '', ( #61 ), #106 ) ;
#96 =( NAMED_UNIT ( * ) SI_UNIT ( $, .STERADIAN. ) SOLID_ANGLE_UNIT ( ) );
#97 = ORIENTED_EDGE ( 'NONE', *, *, #134, .F. ) ;
#98 = LINE ( 'NONE', #91, #30 ) ;
#99 = FILL_AREA_STYLE_COLOUR ( '', #191 ) ;
#100 = CARTESIAN_POINT ( 'NONE',  ( 0.0000000000000000000, -1.521280406265436600E-017, 913.3281077964150000 ) ) ;
#101 = LINE ( 'NONE', #182, #49 ) ;
#102 = EDGE_LOOP ( 'NONE', ( #197, #25 ) ) ;
#103 = CONICAL_SURFACE ( 'NONE', #199, 2414.213562373049200, 1.178097245096165800 ) ;
#104 = ADVANCED_FACE ( 'NONE', ( #194 ), #152, .T. ) ;
#105 = DIRECTION ( 'NONE',  ( 8.659560562354974800E-017, -0.7071067811865507900, -0.7071067811865441300 ) ) ;
#106 =( GEOMETRIC_REPRESENTATION_CONTEXT ( 3 ) GLOBAL_UNCERTAINTY_ASSIGNED_CONTEXT ( ( #8 ) ) GLOBAL_UNIT_ASSIGNED_CONTEXT ( ( #48, #130, #96 ) ) REPRESENTATION_CONTEXT ( 'NONE', 'WORKASPACE' ) );
#107 = ORIENTED_EDGE ( 'NONE', *, *, #119, .T. ) ;
#108 = FACE_OUTER_BOUND ( 'NONE', #112, .T. ) ;
#109 = EDGE_CURVE ( 'NONE', #57, #23, #54, .T. ) ;
#110 = DIRECTION ( 'NONE',  ( 0.0000000000000000000, -1.000000000000000000, 0.0000000000000000000 ) ) ;
#111 = MECHANICAL_DESIGN_GEOMETRIC_PRESENTATION_REPRESENTATION (  '', ( #52 ), #123 ) ;
#112 = EDGE_LOOP ( 'NONE', ( #97, #71, #79 ) ) ;
#113 = DIRECTION ( 'NONE',  ( 1.131426112287697300E-016, 0.9238795325112841800, 0.3826834323650959400 ) ) ;
#114 = CARTESIAN_POINT ( 'NONE',  ( 0.0000000000000000000, -2.286000000000004500, -0.4572000000000016100 ) ) ;
#115 = CIRCLE ( 'NONE', #33, 1.828799999999998400 ) ;
#116 = AXIS2_PLACEMENT_3D ( 'NONE', #31, #181, #76 ) ;
#117 = DIRECTION ( 'NONE',  ( -0.0000000000000000000, -1.665645011118541800E-020, 1.000000000000000000 ) ) ;
#118 = DIRECTION ( 'NONE',  ( 0.0000000000000000000, -1.000000000000000000, 0.0000000000000000000 ) ) ;
#119 = EDGE_CURVE ( 'NONE', #185, #125, #155, .T. ) ;
#120 = CARTESIAN_POINT ( 'NONE',  ( 0.0000000000000000000, 7.615328990833998600E-021, -0.4572000000000016100 ) ) ;
#121 = PLANE ( 'NONE',  #12 ) ;
#122 = EDGE_LOOP ( 'NONE', ( #68, #151, #86, #10 ) ) ;
#123 =( GEOMETRIC_REPRESENTATION_CONTEXT ( 3 ) GLOBAL_UNCERTAINTY_ASSIGNED_CONTEXT ( ( #11 ) ) GLOBAL_UNIT_ASSIGNED_CONTEXT ( ( #75, #207, #35 ) ) REPRESENTATION_CONTEXT ( 'NONE', 'WORKASPACE' ) );
#124 = EDGE_CURVE ( 'NONE', #203, #28, #143, .T. ) ;
#125 = VERTEX_POINT ( 'NONE', #80 ) ;
#126 = PRODUCT_DEFINITION ( 'UNKNOWN', '', #77, #18 ) ;
#127 = CARTESIAN_POINT ( 'NONE',  ( 0.0000000000000000000, 1.427874185781369900E-018, -85.72499999999999400 ) ) ;
#128 = EDGE_LOOP ( 'NONE', ( #213, #169, #50, #158 ) ) ;
#129 = CARTESIAN_POINT ( 'NONE',  ( 2.799542582850855300E-016, 2.286000000000004500, -0.4572000000000016100 ) ) ;
#130 =( NAMED_UNIT ( * ) PLANE_ANGLE_UNIT ( ) SI_UNIT ( $, .RADIAN. ) );
#131 = DIRECTION ( 'NONE',  ( 0.0000000000000000000, 1.000000000000000000, 1.665645011118377500E-020 ) ) ;
#132 = SURFACE_STYLE_FILL_AREA ( #206 ) ;
#133 = FILL_AREA_STYLE_COLOUR ( '', #137 ) ;
#134 = EDGE_CURVE ( 'NONE', #21, #185, #101, .T. ) ;
#135 = DIRECTION ( 'NONE',  ( 0.0000000000000000000, 1.000000000000000000, 1.665645011118377500E-020 ) ) ;
#136 =( NAMED_UNIT ( * ) SI_UNIT ( $, .STERADIAN. ) SOLID_ANGLE_UNIT ( ) );
#137 = COLOUR_RGB ( '',0.7921568627450980000, 0.8196078431372548800, 0.9333333333333333500 ) ;
#138 = CONICAL_SURFACE ( 'NONE', #22, 1.828799999999998400, 0.7853981633974530500 ) ;
#139 = CARTESIAN_POINT ( 'NONE',  ( 0.0000000000000000000, -1.521280406265436600E-017, 913.3281077964150000 ) ) ;
#140 = DIRECTION ( 'NONE',  ( -0.0000000000000000000, -1.665645011118541800E-020, 1.000000000000000000 ) ) ;
#141 = CIRCLE ( 'NONE', #56, 2.286000000000009800 ) ;
#142 = PRODUCT_CONTEXT ( 'NONE', #44, 'mechanical' ) ;
#143 = CIRCLE ( 'NONE', #202, 2.286000000000004500 ) ;
#144 = DIRECTION ( 'NONE',  ( 0.0000000000000000000, 0.0000000000000000000, 1.000000000000000000 ) ) ;
#145 = DIRECTION ( 'NONE',  ( 1.000000000000000000, 0.0000000000000000000, 0.0000000000000000000 ) ) ;
#146 = PRESENTATION_STYLE_ASSIGNMENT (( #74 ) ) ;
#147 = DIRECTION ( 'NONE',  ( 0.0000000000000000000, -1.000000000000000000, -1.665645011118542100E-020 ) ) ;
#148 = DIRECTION ( 'NONE',  ( -0.0000000000000000000, -1.665645011118541800E-020, 1.000000000000000000 ) ) ;
#149 = EDGE_CURVE ( 'NONE', #125, #185, #141, .T. ) ;
#150 = DIRECTION ( 'NONE',  ( -0.0000000000000000000, -1.665645011118541800E-020, 1.000000000000000000 ) ) ;
#151 = ORIENTED_EDGE ( 'NONE', *, *, #157, .T. ) ;
#152 = CONICAL_SURFACE ( 'NONE', #162, 2414.213562373049200, 1.178097245096165800 ) ;
#153 = ADVANCED_FACE ( 'NONE', ( #108 ), #103, .T. ) ;
#154 = ORIENTED_EDGE ( 'NONE', *, *, #90, .T. ) ;
#155 = CIRCLE ( 'NONE', #212, 2.286000000000009800 ) ;
#156 = AXIS2_PLACEMENT_3D ( 'NONE', #160, #144, #145 ) ;
#157 = EDGE_CURVE ( 'NONE', #23, #28, #180, .T. ) ;
#158 = ORIENTED_EDGE ( 'NONE', *, *, #210, .F. ) ;
#159 = EDGE_CURVE ( 'NONE', #185, #28, #98, .T. ) ;
#160 = CARTESIAN_POINT ( 'NONE',  ( 0.0000000000000000000, 0.0000000000000000000, 0.0000000000000000000 ) ) ;
#161 = SURFACE_SIDE_STYLE ('',( #87 ) ) ;
#162 = AXIS2_PLACEMENT_3D ( 'NONE', #100, #214, #118 ) ;
#163 = CARTESIAN_POINT ( 'NONE',  ( 2.303304630640496500E-050, 1.443646048531052700E-018, -86.67189220358491800 ) ) ;
#164 = DIRECTION ( 'NONE',  ( 0.0000000000000000000, 1.000000000000000000, 1.665645011118377500E-020 ) ) ;
#165 = ORIENTED_EDGE ( 'NONE', *, *, #124, .T. ) ;
#166 = CARTESIAN_POINT ( 'NONE',  ( 0.0000000000000000000, 2.285999999999999600, 1.399961674650195200E-016 ) ) ;
#167 = PRODUCT_RELATED_PRODUCT_CATEGORY ( 'part', '', ( #195 ) ) ;
#168 = DIRECTION ( 'NONE',  ( 0.0000000000000000000, 0.7071067811865507900, -0.7071067811865441300 ) ) ;
#169 = ORIENTED_EDGE ( 'NONE', *, *, #109, .F. ) ;
#170 = EDGE_LOOP ( 'NONE', ( #60, #94, #3, #66 ) ) ;
#171 = ADVANCED_BREP_SHAPE_REPRESENTATION ( '03-0298', ( #2, #156 ), #200 ) ;
#172 = ADVANCED_FACE ( 'NONE', ( #58 ), #24, .T. ) ;
#173 = ORIENTED_EDGE ( 'NONE', *, *, #149, .F. ) ;
#174 = CARTESIAN_POINT ( 'NONE',  ( 0.0000000000000000000, 7.615328990833998600E-021, -0.4572000000000016100 ) ) ;
#175 = CYLINDRICAL_SURFACE ( 'NONE', #116, 2.286000000000004500 ) ;
#176 = CARTESIAN_POINT ( 'NONE',  ( 0.0000000000000000000, -2.331204957401176200E-036, 1.399580908200653400E-016 ) ) ;
#177 = SURFACE_STYLE_USAGE ( .BOTH. , #161 ) ;
#178 = SURFACE_SIDE_STYLE ('',( #132 ) ) ;
#179 = ORIENTED_EDGE ( 'NONE', *, *, #134, .T. ) ;
#180 = LINE ( 'NONE', #89, #7 ) ;
#181 = DIRECTION ( 'NONE',  ( -0.0000000000000000000, -1.665645011118541800E-020, 1.000000000000000000 ) ) ;
#182 = CARTESIAN_POINT ( 'NONE',  ( 0.0000000000000000000, 1.443646048531052300E-018, -86.67189220358491800 ) ) ;
#183 = DIRECTION ( 'NONE',  ( 0.0000000000000000000, -1.000000000000000000, 0.0000000000000000000 ) ) ;
#184 = CARTESIAN_POINT ( 'NONE',  ( 2.799542582850855300E-016, 2.286000000000004500, 3.807664495416994400E-020 ) ) ;
#185 = VERTEX_POINT ( 'NONE', #92 ) ;
#186 = FACE_OUTER_BOUND ( 'NONE', #128, .T. ) ;
#187 = EDGE_LOOP ( 'NONE', ( #107, #154, #165, #82 ) ) ;
#188 = LINE ( 'NONE', #163, #88 ) ;
#189 = ADVANCED_FACE ( 'NONE', ( #186 ), #138, .T. ) ;
#190 = FACE_OUTER_BOUND ( 'NONE', #170, .T. ) ;
#191 = COLOUR_RGB ( '',0.7921568627450980000, 0.8196078431372548800, 0.9333333333333333500 ) ;
#192 = CARTESIAN_POINT ( 'NONE',  ( 0.0000000000000000000, -2.331204957401176200E-036, 1.399580908200653400E-016 ) ) ;
#193 = DIRECTION ( 'NONE',  ( -0.0000000000000000000, -1.665645011118541800E-020, 1.000000000000000000 ) ) ;
#194 = FACE_OUTER_BOUND ( 'NONE', #13, .T. ) ;
#195 = PRODUCT ( '03-0298', '03-0298', '', ( #142 ) ) ;
#196 = CARTESIAN_POINT ( 'NONE',  ( 0.0000000000000000000, -2.331204957401176900E-036, 1.399580908200653400E-016 ) ) ;
#197 = ORIENTED_EDGE ( 'NONE', *, *, #109, .T. ) ;
#198 = CIRCLE ( 'NONE', #47, 2.286000000000004500 ) ;
#199 = AXIS2_PLACEMENT_3D ( 'NONE', #139, #140, #110 ) ;
#200 =( GEOMETRIC_REPRESENTATION_CONTEXT ( 3 ) GLOBAL_UNCERTAINTY_ASSIGNED_CONTEXT ( ( #20 ) ) GLOBAL_UNIT_ASSIGNED_CONTEXT ( ( #67, #1, #136 ) ) REPRESENTATION_CONTEXT ( 'NONE', 'WORKASPACE' ) );
#201 = DIRECTION ( 'NONE',  ( 0.0000000000000000000, 1.000000000000000000, 0.0000000000000000000 ) ) ;
#202 = AXIS2_PLACEMENT_3D ( 'NONE', #120, #78, #17 ) ;
#203 = VERTEX_POINT ( 'NONE', #129 ) ;
#204 = DIRECTION ( 'NONE',  ( 0.0000000000000000000, 1.665645011118541800E-020, -1.000000000000000000 ) ) ;
#205 = PRESENTATION_LAYER_ASSIGNMENT (  '', '', ( #52 ) ) ;
#206 = FILL_AREA_STYLE ('',( #99 ) ) ;
#207 =( NAMED_UNIT ( * ) PLANE_ANGLE_UNIT ( ) SI_UNIT ( $, .RADIAN. ) );
#208 = VECTOR ( 'NONE', #211, 1000.000000000000000 ) ;
#209 = APPLICATION_PROTOCOL_DEFINITION ( 'draft international standard', 'automotive_design', 1998, #9 ) ;
#210 = EDGE_CURVE ( 'NONE', #28, #203, #198, .T. ) ;
#211 = DIRECTION ( 'NONE',  ( -0.0000000000000000000, -1.665645011118541800E-020, 1.000000000000000000 ) ) ;
#212 = AXIS2_PLACEMENT_3D ( 'NONE', #37, #148, #183 ) ;
#213 = ORIENTED_EDGE ( 'NONE', *, *, #157, .F. ) ;
#214 = DIRECTION ( 'NONE',  ( -0.0000000000000000000, -1.665645011118541800E-020, 1.000000000000000000 ) ) ;
ENDSEC;
END-ISO-10303-21;
