ISO-10303-21;
HEADER;
FILE_DESCRIPTION (( 'STEP AP214' ),
    '1' );
FILE_NAME ('03-0299.STEP',
    '2020-07-23T06:28:46',
    ( '' ),
    ( '' ),
    'SwSTEP 2.0',
    'SolidWorks 2014',
    '' );
FILE_SCHEMA (( 'AUTOMOTIVE_DESIGN' ));
ENDSEC;

DATA;
#1 = CARTESIAN_POINT ( 'NONE',  ( 0.0000000000000000000, 1.798319999999985300, 1.376349194276313300E-016 ) ) ;
#2 = VERTEX_POINT ( 'NONE', #207 ) ;
#3 = PRESENTATION_LAYER_ASSIGNMENT (  '', '', ( #206 ) ) ;
#4 = DIRECTION ( 'NONE',  ( 1.131426112287697800E-016, 0.9238795325112847400, 0.3826834323650945600 ) ) ;
#5 = LINE ( 'NONE', #149, #70 ) ;
#6 =( NAMED_UNIT ( * ) PLANE_ANGLE_UNIT ( ) SI_UNIT ( $, .RADIAN. ) );
#7 = EDGE_CURVE ( 'NONE', #190, #29, #58, .T. ) ;
#8 = MANIFOLD_SOLID_BREP ( '¸ðµû±â1', #132 ) ;
#9 = DIRECTION ( 'NONE',  ( 0.0000000000000000000, 1.000000000000000000, -1.372771999859838800E-020 ) ) ;
#10 = EDGE_LOOP ( 'NONE', ( #57, #72, #169, #173 ) ) ;
#11 =( GEOMETRIC_REPRESENTATION_CONTEXT ( 3 ) GLOBAL_UNCERTAINTY_ASSIGNED_CONTEXT ( ( #118 ) ) GLOBAL_UNIT_ASSIGNED_CONTEXT ( ( #80, #6, #170 ) ) REPRESENTATION_CONTEXT ( 'NONE', 'WORKASPACE' ) );
#12 = DIRECTION ( 'NONE',  ( -0.0000000000000000000, 1.372771999860496100E-020, 1.000000000000000000 ) ) ;
#13 = CARTESIAN_POINT ( 'NONE',  ( 0.0000000000000000000, -6.171708356973128700E-021, -0.4495800000000226300 ) ) ;
#14 = DIRECTION ( 'NONE',  ( 0.0000000000000000000, 0.0000000000000000000, 1.000000000000000000 ) ) ;
#15 = DIRECTION ( 'NONE',  ( -0.0000000000000000000, 1.372771999860496100E-020, 1.000000000000000000 ) ) ;
#16 = APPLICATION_CONTEXT ( 'automotive_design' ) ;
#17 =( GEOMETRIC_REPRESENTATION_CONTEXT ( 3 ) GLOBAL_UNCERTAINTY_ASSIGNED_CONTEXT ( ( #66 ) ) GLOBAL_UNIT_ASSIGNED_CONTEXT ( ( #69, #116, #146 ) ) REPRESENTATION_CONTEXT ( 'NONE', 'WORKASPACE' ) );
#18 = FACE_OUTER_BOUND ( 'NONE', #110, .T. ) ;
#19 = DIRECTION ( 'NONE',  ( -0.0000000000000000000, 1.372771999860496100E-020, 1.000000000000000000 ) ) ;
#20 = VERTEX_POINT ( 'NONE', #26 ) ;
#21 = EDGE_CURVE ( 'NONE', #29, #129, #125, .T. ) ;
#22 = AXIS2_PLACEMENT_3D ( 'NONE', #87, #19, #137 ) ;
#23 = LINE ( 'NONE', #212, #82 ) ;
#24 = ORIENTED_EDGE ( 'NONE', *, *, #38, .F. ) ;
#25 = ORIENTED_EDGE ( 'NONE', *, *, #138, .T. ) ;
#26 = CARTESIAN_POINT ( 'NONE',  ( 2.752883539803346000E-016, 2.247900000000009300, -85.72499999999999400 ) ) ;
#27 = AXIS2_PLACEMENT_3D ( 'NONE', #13, #133, #32 ) ;
#28 = CIRCLE ( 'NONE', #27, 2.247900000000004900 ) ;
#29 = VERTEX_POINT ( 'NONE', #108 ) ;
#30 = VERTEX_POINT ( 'NONE', #55 ) ;
#31 = DIRECTION ( 'NONE',  ( 0.0000000000000000000, -1.372771999860496100E-020, -1.000000000000000000 ) ) ;
#32 = DIRECTION ( 'NONE',  ( 0.0000000000000000000, 1.000000000000000000, 0.0000000000000000000 ) ) ;
#33 = CARTESIAN_POINT ( 'NONE',  ( 0.0000000000000000000, 2.247899999999999600, 1.376287477192743500E-016 ) ) ;
#34 = FILL_AREA_STYLE ('',( #175 ) ) ;
#35 = CIRCLE ( 'NONE', #53, 1.798319999999985300 ) ;
#36 = ORIENTED_EDGE ( 'NONE', *, *, #126, .F. ) ;
#37 = PRESENTATION_LAYER_ASSIGNMENT (  '', '', ( #195 ) ) ;
#38 = EDGE_CURVE ( 'NONE', #30, #20, #208, .T. ) ;
#39 = CIRCLE ( 'NONE', #67, 1.798319999999985300 ) ;
#40 = EDGE_CURVE ( 'NONE', #46, #129, #5, .T. ) ;
#41 = ORIENTED_EDGE ( 'NONE', *, *, #142, .F. ) ;
#42 = FILL_AREA_STYLE ('',( #78 ) ) ;
#43 = DIRECTION ( 'NONE',  ( 8.659560562354904500E-017, -0.7071067811865452400, -0.7071067811865499000 ) ) ;
#44 = ORIENTED_EDGE ( 'NONE', *, *, #77, .T. ) ;
#45 = PRODUCT ( '03-0299', '03-0299', '', ( #65 ) ) ;
#46 = VERTEX_POINT ( 'NONE', #1 ) ;
#47 = AXIS2_PLACEMENT_3D ( 'NONE', #61, #60, #115 ) ;
#48 = DIRECTION ( 'NONE',  ( 0.0000000000000000000, -1.372771999860496100E-020, -1.000000000000000000 ) ) ;
#49 = APPLICATION_PROTOCOL_DEFINITION ( 'draft international standard', 'automotive_design', 1998, #117 ) ;
#50 =( NAMED_UNIT ( * ) SI_UNIT ( $, .STERADIAN. ) SOLID_ANGLE_UNIT ( ) );
#51 = CARTESIAN_POINT ( 'NONE',  ( 0.0000000000000000000, 1.253812917520220200E-017, 913.3438893331415300 ) ) ;
#52 = CONICAL_SURFACE ( 'NONE', #140, 2414.213562373059200, 1.178097245096167300 ) ;
#53 = AXIS2_PLACEMENT_3D ( 'NONE', #90, #136, #172 ) ;
#54 = EDGE_LOOP ( 'NONE', ( #44, #105 ) ) ;
#55 = CARTESIAN_POINT ( 'NONE',  ( 0.0000000000000000000, -1.189590823402758100E-018, -86.65611066685849600 ) ) ;
#56 = CIRCLE ( 'NONE', #103, 2.247900000000010200 ) ;
#57 = ORIENTED_EDGE ( 'NONE', *, *, #88, .F. ) ;
#58 = LINE ( 'NONE', #141, #135 ) ;
#59 = ADVANCED_FACE ( 'NONE', ( #18 ), #104, .T. ) ;
#60 = DIRECTION ( 'NONE',  ( -0.0000000000000000000, 1.372771999860496100E-020, 1.000000000000000000 ) ) ;
#61 = CARTESIAN_POINT ( 'NONE',  ( 0.0000000000000000000, 0.0000000000000000000, 0.0000000000000000000 ) ) ;
#62 = ADVANCED_FACE ( 'NONE', ( #139 ), #177, .T. ) ;
#63 = DIRECTION ( 'NONE',  ( 0.0000000000000000000, -1.372771999860496100E-020, -1.000000000000000000 ) ) ;
#64 = ADVANCED_FACE ( 'NONE', ( #127 ), #52, .T. ) ;
#65 = PRODUCT_CONTEXT ( 'NONE', #16, 'mechanical' ) ;
#66 = UNCERTAINTY_MEASURE_WITH_UNIT (LENGTH_MEASURE( 1.000000000000000100E-005 ), #69, 'distance_accuracy_value', 'NONE');
#67 = AXIS2_PLACEMENT_3D ( 'NONE', #174, #211, #113 ) ;
#68 = DIRECTION ( 'NONE',  ( 1.000000000000000000, 0.0000000000000000000, 0.0000000000000000000 ) ) ;
#69 =( LENGTH_UNIT ( ) NAMED_UNIT ( * ) SI_UNIT ( .MILLI., .METRE. ) );
#70 = VECTOR ( 'NONE', #197, 1000.000000000000100 ) ;
#71 = ORIENTED_EDGE ( 'NONE', *, *, #7, .T. ) ;
#72 = ORIENTED_EDGE ( 'NONE', *, *, #193, .T. ) ;
#73 = PRODUCT_DEFINITION_FORMATION_WITH_SPECIFIED_SOURCE ( 'ANY', '', #45, .NOT_KNOWN. ) ;
#74 = DIRECTION ( 'NONE',  ( 0.0000000000000000000, 1.000000000000000000, 0.0000000000000000000 ) ) ;
#75 = CONICAL_SURFACE ( 'NONE', #153, 1.798319999999985300, 0.7853981633974449500 ) ;
#76 = ORIENTED_EDGE ( 'NONE', *, *, #38, .T. ) ;
#77 = EDGE_CURVE ( 'NONE', #46, #190, #35, .T. ) ;
#78 = FILL_AREA_STYLE_COLOUR ( '', #94 ) ;
#79 = EDGE_LOOP ( 'NONE', ( #121, #124, #155, #101 ) ) ;
#80 =( LENGTH_UNIT ( ) NAMED_UNIT ( * ) SI_UNIT ( .MILLI., .METRE. ) );
#81 = AXIS2_PLACEMENT_3D ( 'NONE', #214, #15, #147 ) ;
#82 = VECTOR ( 'NONE', #209, 1000.000000000000000 ) ;
#83 = ADVANCED_FACE ( 'NONE', ( #120 ), #75, .T. ) ;
#84 = PLANE ( 'NONE',  #91 ) ;
#85 = DIRECTION ( 'NONE',  ( 0.0000000000000000000, 1.000000000000000000, -1.372771999859838800E-020 ) ) ;
#86 =( LENGTH_UNIT ( ) NAMED_UNIT ( * ) SI_UNIT ( .MILLI., .METRE. ) );
#87 = CARTESIAN_POINT ( 'NONE',  ( 0.0000000000000000000, 1.253812917520220200E-017, 913.3438893331415300 ) ) ;
#88 = EDGE_CURVE ( 'NONE', #20, #129, #23, .T. ) ;
#89 = SURFACE_STYLE_FILL_AREA ( #42 ) ;
#90 = CARTESIAN_POINT ( 'NONE',  ( 0.0000000000000000000, 1.889752529870027200E-036, 1.376596062610592100E-016 ) ) ;
#91 = AXIS2_PLACEMENT_3D ( 'NONE', #33, #48, #95 ) ;
#92 = LINE ( 'NONE', #130, #154 ) ;
#93 = ADVANCED_FACE ( 'NONE', ( #100 ), #202, .T. ) ;
#94 = COLOUR_RGB ( '',0.7921568627450980000, 0.8196078431372548800, 0.9333333333333333500 ) ;
#95 = DIRECTION ( 'NONE',  ( 0.0000000000000000000, 1.000000000000000000, -1.372771999860496100E-020 ) ) ;
#96 = DIRECTION ( 'NONE',  ( 0.0000000000000000000, -1.000000000000000000, 0.0000000000000000000 ) ) ;
#97 = CARTESIAN_POINT ( 'NONE',  ( 0.0000000000000000000, 1.889752529870027200E-036, 1.376596062610592100E-016 ) ) ;
#98 = CARTESIAN_POINT ( 'NONE',  ( 0.0000000000000000000, 0.0000000000000000000, 0.0000000000000000000 ) ) ;
#99 = CARTESIAN_POINT ( 'NONE',  ( 0.0000000000000000000, 0.0000000000000000000, 0.0000000000000000000 ) ) ;
#100 = FACE_OUTER_BOUND ( 'NONE', #10, .T. ) ;
#101 = ORIENTED_EDGE ( 'NONE', *, *, #21, .F. ) ;
#102 = PRODUCT_DEFINITION ( 'UNKNOWN', '', #73, #179 ) ;
#103 = AXIS2_PLACEMENT_3D ( 'NONE', #192, #112, #96 ) ;
#104 = CONICAL_SURFACE ( 'NONE', #22, 2414.213562373059200, 1.178097245096167300 ) ;
#105 = ORIENTED_EDGE ( 'NONE', *, *, #126, .T. ) ;
#106 = ORIENTED_EDGE ( 'NONE', *, *, #193, .F. ) ;
#107 = CARTESIAN_POINT ( 'NONE',  ( 2.303304630640496500E-050, -1.189590823402757800E-018, -86.65611066685849600 ) ) ;
#108 = CARTESIAN_POINT ( 'NONE',  ( 0.0000000000000000000, -2.247900000000004900, -0.4495800000000226300 ) ) ;
#109 = FACE_OUTER_BOUND ( 'NONE', #54, .T. ) ;
#110 = EDGE_LOOP ( 'NONE', ( #152, #76, #41 ) ) ;
#111 = ADVANCED_FACE ( 'NONE', ( #109 ), #84, .F. ) ;
#112 = DIRECTION ( 'NONE',  ( -0.0000000000000000000, 1.372771999860496100E-020, 1.000000000000000000 ) ) ;
#113 = DIRECTION ( 'NONE',  ( 0.0000000000000000000, 1.000000000000000000, -1.372771999859838800E-020 ) ) ;
#114 = AXIS2_PLACEMENT_3D ( 'NONE', #97, #31, #85 ) ;
#115 = DIRECTION ( 'NONE',  ( 0.0000000000000000000, -1.000000000000000000, 1.372771999860496100E-020 ) ) ;
#116 =( NAMED_UNIT ( * ) PLANE_ANGLE_UNIT ( ) SI_UNIT ( $, .RADIAN. ) );
#117 = APPLICATION_CONTEXT ( 'automotive_design' ) ;
#118 = UNCERTAINTY_MEASURE_WITH_UNIT (LENGTH_MEASURE( 1.000000000000000100E-005 ), #80, 'distance_accuracy_value', 'NONE');
#119 = CARTESIAN_POINT ( 'NONE',  ( 2.477595185822995100E-016, -1.798319999999985300, 1.376842930944870700E-016 ) ) ;
#120 = FACE_OUTER_BOUND ( 'NONE', #79, .T. ) ;
#121 = ORIENTED_EDGE ( 'NONE', *, *, #7, .F. ) ;
#122 = SHAPE_DEFINITION_REPRESENTATION ( #143, #205 ) ;
#123 = DIRECTION ( 'NONE',  ( 0.0000000000000000000, -1.000000000000000000, 1.372771999860496100E-020 ) ) ;
#124 = ORIENTED_EDGE ( 'NONE', *, *, #77, .F. ) ;
#125 = CIRCLE ( 'NONE', #134, 2.247900000000004900 ) ;
#126 = EDGE_CURVE ( 'NONE', #190, #46, #39, .T. ) ;
#127 = FACE_OUTER_BOUND ( 'NONE', #203, .T. ) ;
#128 = AXIS2_PLACEMENT_3D ( 'NONE', #98, #14, #68 ) ;
#129 = VERTEX_POINT ( 'NONE', #194 ) ;
#130 = CARTESIAN_POINT ( 'NONE',  ( 0.0000000000000000000, -1.189590823402758100E-018, -86.65611066685849600 ) ) ;
#131 =( GEOMETRIC_REPRESENTATION_CONTEXT ( 3 ) GLOBAL_UNCERTAINTY_ASSIGNED_CONTEXT ( ( #157 ) ) GLOBAL_UNIT_ASSIGNED_CONTEXT ( ( #86, #176, #50 ) ) REPRESENTATION_CONTEXT ( 'NONE', 'WORKASPACE' ) );
#132 = CLOSED_SHELL ( 'NONE', ( #189, #62, #59, #111, #64, #93, #83 ) ) ;
#133 = DIRECTION ( 'NONE',  ( 0.0000000000000000000, -1.372771999860496100E-020, -1.000000000000000000 ) ) ;
#134 = AXIS2_PLACEMENT_3D ( 'NONE', #183, #167, #74 ) ;
#135 = VECTOR ( 'NONE', #43, 1000.000000000000100 ) ;
#136 = DIRECTION ( 'NONE',  ( -0.0000000000000000000, 1.372771999860496100E-020, 1.000000000000000000 ) ) ;
#137 = DIRECTION ( 'NONE',  ( 0.0000000000000000000, -1.000000000000000000, 0.0000000000000000000 ) ) ;
#138 = EDGE_CURVE ( 'NONE', #129, #29, #28, .T. ) ;
#139 = FACE_OUTER_BOUND ( 'NONE', #181, .T. ) ;
#140 = AXIS2_PLACEMENT_3D ( 'NONE', #51, #178, #200 ) ;
#141 = CARTESIAN_POINT ( 'NONE',  ( 2.202306831842649300E-016, -1.798319999999985300, 1.376842930944870700E-016 ) ) ;
#142 = EDGE_CURVE ( 'NONE', #2, #20, #56, .T. ) ;
#143 = PRODUCT_DEFINITION_SHAPE ( 'NONE', 'NONE',  #102 ) ;
#144 = CARTESIAN_POINT ( 'NONE',  ( 0.0000000000000000000, 1.889752529870027200E-036, 1.376596062610592100E-016 ) ) ;
#145 = EDGE_LOOP ( 'NONE', ( #36, #71, #198, #191 ) ) ;
#146 =( NAMED_UNIT ( * ) SI_UNIT ( $, .STERADIAN. ) SOLID_ANGLE_UNIT ( ) );
#147 = DIRECTION ( 'NONE',  ( 0.0000000000000000000, -1.000000000000000000, 0.0000000000000000000 ) ) ;
#148 = FACE_OUTER_BOUND ( 'NONE', #145, .T. ) ;
#149 = CARTESIAN_POINT ( 'NONE',  ( 0.0000000000000000000, 1.798319999999985300, 1.376349194276313300E-016 ) ) ;
#150 = ORIENTED_EDGE ( 'NONE', *, *, #142, .T. ) ;
#151 = PRODUCT_RELATED_PRODUCT_CATEGORY ( 'part', '', ( #45 ) ) ;
#152 = ORIENTED_EDGE ( 'NONE', *, *, #182, .F. ) ;
#153 = AXIS2_PLACEMENT_3D ( 'NONE', #144, #63, #9 ) ;
#154 = VECTOR ( 'NONE', #161, 1000.000000000000000 ) ;
#155 = ORIENTED_EDGE ( 'NONE', *, *, #40, .T. ) ;
#156 = SURFACE_SIDE_STYLE ('',( #89 ) ) ;
#157 = UNCERTAINTY_MEASURE_WITH_UNIT (LENGTH_MEASURE( 1.000000000000000100E-005 ), #86, 'distance_accuracy_value', 'NONE');
#158 = EDGE_CURVE ( 'NONE', #2, #29, #159, .T. ) ;
#159 = LINE ( 'NONE', #162, #196 ) ;
#160 = ORIENTED_EDGE ( 'NONE', *, *, #158, .F. ) ;
#161 = DIRECTION ( 'NONE',  ( 0.0000000000000000000, -0.9238795325112847400, 0.3826834323650945600 ) ) ;
#162 = CARTESIAN_POINT ( 'NONE',  ( 0.0000000000000000000, -2.247900000000004900, 3.085854178486415700E-020 ) ) ;
#163 = APPLICATION_PROTOCOL_DEFINITION ( 'draft international standard', 'automotive_design', 1998, #16 ) ;
#164 = SURFACE_SIDE_STYLE ('',( #187 ) ) ;
#165 = CIRCLE ( 'NONE', #81, 2.247900000000010200 ) ;
#166 = DIRECTION ( 'NONE',  ( -0.0000000000000000000, 1.372771999860496100E-020, 1.000000000000000000 ) ) ;
#167 = DIRECTION ( 'NONE',  ( 0.0000000000000000000, -1.372771999860496100E-020, -1.000000000000000000 ) ) ;
#168 = CONICAL_SURFACE ( 'NONE', #114, 1.798319999999985300, 0.7853981633974449500 ) ;
#169 = ORIENTED_EDGE ( 'NONE', *, *, #158, .T. ) ;
#170 =( NAMED_UNIT ( * ) SI_UNIT ( $, .STERADIAN. ) SOLID_ANGLE_UNIT ( ) );
#171 = MECHANICAL_DESIGN_GEOMETRIC_PRESENTATION_REPRESENTATION (  '', ( #195 ), #17 ) ;
#172 = DIRECTION ( 'NONE',  ( 0.0000000000000000000, 1.000000000000000000, -1.372771999859838800E-020 ) ) ;
#173 = ORIENTED_EDGE ( 'NONE', *, *, #21, .T. ) ;
#174 = CARTESIAN_POINT ( 'NONE',  ( 0.0000000000000000000, 1.889752529870027200E-036, 1.376596062610592100E-016 ) ) ;
#175 = FILL_AREA_STYLE_COLOUR ( '', #199 ) ;
#176 =( NAMED_UNIT ( * ) PLANE_ANGLE_UNIT ( ) SI_UNIT ( $, .RADIAN. ) );
#177 = CYLINDRICAL_SURFACE ( 'NONE', #201, 2.247900000000004900 ) ;
#178 = DIRECTION ( 'NONE',  ( -0.0000000000000000000, 1.372771999860496100E-020, 1.000000000000000000 ) ) ;
#179 = PRODUCT_DEFINITION_CONTEXT ( 'detailed design', #117, 'design' ) ;
#180 = PRESENTATION_STYLE_ASSIGNMENT (( #213 ) ) ;
#181 = EDGE_LOOP ( 'NONE', ( #150, #204, #25, #160 ) ) ;
#182 = EDGE_CURVE ( 'NONE', #30, #2, #92, .T. ) ;
#183 = CARTESIAN_POINT ( 'NONE',  ( 0.0000000000000000000, -6.171708356973128700E-021, -0.4495800000000226300 ) ) ;
#184 = VECTOR ( 'NONE', #4, 1000.000000000000000 ) ;
#185 = MECHANICAL_DESIGN_GEOMETRIC_PRESENTATION_REPRESENTATION (  '', ( #206 ), #11 ) ;
#186 = ORIENTED_EDGE ( 'NONE', *, *, #182, .T. ) ;
#187 = SURFACE_STYLE_FILL_AREA ( #34 ) ;
#188 = SURFACE_STYLE_USAGE ( .BOTH. , #156 ) ;
#189 = ADVANCED_FACE ( 'NONE', ( #148 ), #168, .T. ) ;
#190 = VERTEX_POINT ( 'NONE', #119 ) ;
#191 = ORIENTED_EDGE ( 'NONE', *, *, #40, .F. ) ;
#192 = CARTESIAN_POINT ( 'NONE',  ( 0.0000000000000000000, -1.176808796880410200E-018, -85.72499999999999400 ) ) ;
#193 = EDGE_CURVE ( 'NONE', #20, #2, #165, .T. ) ;
#194 = CARTESIAN_POINT ( 'NONE',  ( 2.752883539803341000E-016, 2.247900000000004900, -0.4495800000000226300 ) ) ;
#195 = STYLED_ITEM ( 'NONE', ( #180 ), #205 ) ;
#196 = VECTOR ( 'NONE', #12, 1000.000000000000000 ) ;
#197 = DIRECTION ( 'NONE',  ( 0.0000000000000000000, 0.7071067811865452400, -0.7071067811865499000 ) ) ;
#198 = ORIENTED_EDGE ( 'NONE', *, *, #138, .F. ) ;
#199 = COLOUR_RGB ( '',0.7921568627450980000, 0.8196078431372548800, 0.9333333333333333500 ) ;
#200 = DIRECTION ( 'NONE',  ( 0.0000000000000000000, -1.000000000000000000, 0.0000000000000000000 ) ) ;
#201 = AXIS2_PLACEMENT_3D ( 'NONE', #99, #166, #123 ) ;
#202 = CYLINDRICAL_SURFACE ( 'NONE', #47, 2.247900000000004900 ) ;
#203 = EDGE_LOOP ( 'NONE', ( #24, #186, #106 ) ) ;
#204 = ORIENTED_EDGE ( 'NONE', *, *, #88, .T. ) ;
#205 = ADVANCED_BREP_SHAPE_REPRESENTATION ( '03-0299', ( #8, #128 ), #131 ) ;
#206 = STYLED_ITEM ( 'NONE', ( #210 ), #8 ) ;
#207 = CARTESIAN_POINT ( 'NONE',  ( 0.0000000000000000000, -2.247900000000009300, -85.72499999999999400 ) ) ;
#208 = LINE ( 'NONE', #107, #184 ) ;
#209 = DIRECTION ( 'NONE',  ( -0.0000000000000000000, 1.372771999860496100E-020, 1.000000000000000000 ) ) ;
#210 = PRESENTATION_STYLE_ASSIGNMENT (( #188 ) ) ;
#211 = DIRECTION ( 'NONE',  ( -0.0000000000000000000, 1.372771999860496100E-020, 1.000000000000000000 ) ) ;
#212 = CARTESIAN_POINT ( 'NONE',  ( 2.752883539803341000E-016, 2.247900000000004900, -3.085854178486415700E-020 ) ) ;
#213 = SURFACE_STYLE_USAGE ( .BOTH. , #164 ) ;
#214 = CARTESIAN_POINT ( 'NONE',  ( 0.0000000000000000000, -1.176808796880410200E-018, -85.72499999999999400 ) ) ;
ENDSEC;
END-ISO-10303-21;
