ISO-10303-21;
HEADER;
FILE_DESCRIPTION (( 'STEP AP214' ),
    '1' );
FILE_NAME ('03-0300.STEP',
    '2020-07-23T06:29:27',
    ( '' ),
    ( '' ),
    'SwSTEP 2.0',
    'SolidWorks 2014',
    '' );
FILE_SCHEMA (( 'AUTOMOTIVE_DESIGN' ));
ENDSEC;

DATA;
#1 = CONICAL_SURFACE ( 'NONE', #119, 1.757679999999990600, 0.7853981633974452800 ) ;
#2 = CARTESIAN_POINT ( 'NONE',  ( 0.0000000000000000000, 4.004291593229845100E-037, 1.345368437930896200E-016 ) ) ;
#3 = DIRECTION ( 'NONE',  ( -0.0000000000000000000, 2.976353153778625600E-021, 1.000000000000000000 ) ) ;
#4 = AXIS2_PLACEMENT_3D ( 'NONE', #165, #63, #182 ) ;
#5 = CARTESIAN_POINT ( 'NONE',  ( 0.0000000000000000000, -2.197100000000005200, -0.4394200000000171900 ) ) ;
#6 = FACE_OUTER_BOUND ( 'NONE', #187, .T. ) ;
#7 = SURFACE_STYLE_USAGE ( .BOTH. , #149 ) ;
#8 = DIRECTION ( 'NONE',  ( 0.0000000000000000000, -1.000000000000000000, 0.0000000000000000000 ) ) ;
#9 = APPLICATION_PROTOCOL_DEFINITION ( 'draft international standard', 'automotive_design', 1998, #137 ) ;
#10 = CIRCLE ( 'NONE', #13, 2.197100000000005200 ) ;
#11 = EDGE_LOOP ( 'NONE', ( #105, #121, #208, #55 ) ) ;
#12 = DIRECTION ( 'NONE',  ( -0.0000000000000000000, 2.976353153778625600E-021, 1.000000000000000000 ) ) ;
#13 = AXIS2_PLACEMENT_3D ( 'NONE', #20, #74, #90 ) ;
#14 = ADVANCED_FACE ( 'NONE', ( #22 ), #73, .T. ) ;
#15 = CARTESIAN_POINT ( 'NONE',  ( 0.0000000000000000000, -2.197100000000005200, 6.539345514167033400E-021 ) ) ;
#16 = CARTESIAN_POINT ( 'NONE',  ( 0.0000000000000000000, -2.551478741076726700E-019, -85.72499999999999400 ) ) ;
#17 = DIRECTION ( 'NONE',  ( 0.0000000000000000000, -2.976353153778625600E-021, -1.000000000000000000 ) ) ;
#18 = EDGE_LOOP ( 'NONE', ( #200, #24 ) ) ;
#19 = DIRECTION ( 'NONE',  ( -0.0000000000000000000, 2.976353153778625600E-021, 1.000000000000000000 ) ) ;
#20 = CARTESIAN_POINT ( 'NONE',  ( 0.0000000000000000000, -1.307869102833454700E-021, -0.4394200000000171900 ) ) ;
#21 =( NAMED_UNIT ( * ) SI_UNIT ( $, .STERADIAN. ) SOLID_ANGLE_UNIT ( ) );
#22 = FACE_OUTER_BOUND ( 'NONE', #166, .T. ) ;
#23 = DIRECTION ( 'NONE',  ( 8.659560562354907000E-017, -0.7071067811865454600, -0.7071067811865495700 ) ) ;
#24 = ORIENTED_EDGE ( 'NONE', *, *, #101, .T. ) ;
#25 =( NAMED_UNIT ( * ) PLANE_ANGLE_UNIT ( ) SI_UNIT ( $, .RADIAN. ) );
#26 = ORIENTED_EDGE ( 'NONE', *, *, #186, .F. ) ;
#27 = CONICAL_SURFACE ( 'NONE', #161, 2414.213562373052400, 1.178097245096166200 ) ;
#28 = EDGE_CURVE ( 'NONE', #87, #192, #189, .T. ) ;
#29 = SHAPE_DEFINITION_REPRESENTATION ( #134, #123 ) ;
#30 = ORIENTED_EDGE ( 'NONE', *, *, #85, .F. ) ;
#31 = DIRECTION ( 'NONE',  ( 0.0000000000000000000, -2.976353153778626000E-021, -1.000000000000000000 ) ) ;
#32 = DIRECTION ( 'NONE',  ( -0.0000000000000000000, 2.976353153778625600E-021, 1.000000000000000000 ) ) ;
#33 =( LENGTH_UNIT ( ) NAMED_UNIT ( * ) SI_UNIT ( .MILLI., .METRE. ) );
#34 = DIRECTION ( 'NONE',  ( 0.0000000000000000000, -1.000000000000000000, 0.0000000000000000000 ) ) ;
#35 = EDGE_CURVE ( 'NONE', #206, #87, #109, .T. ) ;
#36 = UNCERTAINTY_MEASURE_WITH_UNIT (LENGTH_MEASURE( 1.000000000000000100E-005 ), #52, 'distance_accuracy_value', 'NONE');
#37 = DIRECTION ( 'NONE',  ( 0.0000000000000000000, -2.976353153778626000E-021, -1.000000000000000000 ) ) ;
#38 = APPLICATION_PROTOCOL_DEFINITION ( 'draft international standard', 'automotive_design', 1998, #185 ) ;
#39 =( GEOMETRIC_REPRESENTATION_CONTEXT ( 3 ) GLOBAL_UNCERTAINTY_ASSIGNED_CONTEXT ( ( #135 ) ) GLOBAL_UNIT_ASSIGNED_CONTEXT ( ( #33, #49, #144 ) ) REPRESENTATION_CONTEXT ( 'NONE', 'WORKASPACE' ) );
#40 = FACE_OUTER_BOUND ( 'NONE', #58, .T. ) ;
#41 = CIRCLE ( 'NONE', #4, 2.197100000000010500 ) ;
#42 = ORIENTED_EDGE ( 'NONE', *, *, #28, .T. ) ;
#43 = DIRECTION ( 'NONE',  ( 0.0000000000000000000, -1.000000000000000000, 2.976353153778625600E-021 ) ) ;
#44 = CARTESIAN_POINT ( 'NONE',  ( 0.0000000000000000000, 4.004291593229844300E-037, 1.345368437930896200E-016 ) ) ;
#45 = FACE_OUTER_BOUND ( 'NONE', #160, .T. ) ;
#46 = CARTESIAN_POINT ( 'NONE',  ( 0.0000000000000000000, 2.718496594069941200E-018, 913.3649313821100600 ) ) ;
#47 = ORIENTED_EDGE ( 'NONE', *, *, #35, .F. ) ;
#48 = EDGE_CURVE ( 'NONE', #156, #192, #171, .T. ) ;
#49 =( NAMED_UNIT ( * ) PLANE_ANGLE_UNIT ( ) SI_UNIT ( $, .RADIAN. ) );
#50 = CARTESIAN_POINT ( 'NONE',  ( 0.0000000000000000000, -2.578565597086843600E-019, -86.63506861788994200 ) ) ;
#51 = LINE ( 'NONE', #170, #159 ) ;
#52 =( LENGTH_UNIT ( ) NAMED_UNIT ( * ) SI_UNIT ( .MILLI., .METRE. ) );
#53 = LINE ( 'NONE', #115, #152 ) ;
#54 = EDGE_CURVE ( 'NONE', #87, #94, #71, .T. ) ;
#55 = ORIENTED_EDGE ( 'NONE', *, *, #57, .F. ) ;
#56 = PRESENTATION_STYLE_ASSIGNMENT (( #7 ) ) ;
#57 = EDGE_CURVE ( 'NONE', #140, #156, #77, .T. ) ;
#58 = EDGE_LOOP ( 'NONE', ( #26, #30, #138, #196 ) ) ;
#59 = DIRECTION ( 'NONE',  ( -0.0000000000000000000, 2.976353153778625600E-021, 1.000000000000000000 ) ) ;
#60 = DIRECTION ( 'NONE',  ( 0.0000000000000000000, 1.000000000000000000, 0.0000000000000000000 ) ) ;
#61 = CARTESIAN_POINT ( 'NONE',  ( 2.690671482406656200E-016, 2.197100000000005200, -0.4394200000000171900 ) ) ;
#62 = PLANE ( 'NONE',  #209 ) ;
#63 = DIRECTION ( 'NONE',  ( -0.0000000000000000000, 2.976353153778625600E-021, 1.000000000000000000 ) ) ;
#64 = PRODUCT ( '03-0300', '03-0300', '', ( #136 ) ) ;
#65 = CARTESIAN_POINT ( 'NONE',  ( 0.0000000000000000000, 2.718496594069941200E-018, 913.3649313821100600 ) ) ;
#66 = DIRECTION ( 'NONE',  ( -0.0000000000000000000, 2.976353153778625600E-021, 1.000000000000000000 ) ) ;
#67 = MANIFOLD_SOLID_BREP ( '¸ðµû±â1', #180 ) ;
#68 = AXIS2_PLACEMENT_3D ( 'NONE', #46, #76, #34 ) ;
#69 = COLOUR_RGB ( '',0.7921568627450980000, 0.8196078431372548800, 0.9333333333333333500 ) ;
#70 = ADVANCED_FACE ( 'NONE', ( #6 ), #124, .T. ) ;
#71 = CIRCLE ( 'NONE', #89, 2.197100000000010500 ) ;
#72 = VERTEX_POINT ( 'NONE', #177 ) ;
#73 = CYLINDRICAL_SURFACE ( 'NONE', #107, 2.197100000000005200 ) ;
#74 = DIRECTION ( 'NONE',  ( 0.0000000000000000000, -2.976353153778626000E-021, -1.000000000000000000 ) ) ;
#75 = CARTESIAN_POINT ( 'NONE',  ( 2.690671482406662600E-016, 2.197100000000010500, -85.72499999999999400 ) ) ;
#76 = DIRECTION ( 'NONE',  ( -0.0000000000000000000, 2.976353153778625600E-021, 1.000000000000000000 ) ) ;
#77 = LINE ( 'NONE', #110, #118 ) ;
#78 = ORIENTED_EDGE ( 'NONE', *, *, #28, .F. ) ;
#79 = AXIS2_PLACEMENT_3D ( 'NONE', #113, #19, #195 ) ;
#80 = CARTESIAN_POINT ( 'NONE',  ( 0.0000000000000000000, 0.0000000000000000000, 0.0000000000000000000 ) ) ;
#81 = DIRECTION ( 'NONE',  ( 1.131426112287697300E-016, 0.9238795325112843000, 0.3826834323650955000 ) ) ;
#82 = FACE_OUTER_BOUND ( 'NONE', #18, .T. ) ;
#83 = DIRECTION ( 'NONE',  ( -0.0000000000000000000, 2.976353153778625600E-021, 1.000000000000000000 ) ) ;
#84 =( NAMED_UNIT ( * ) SI_UNIT ( $, .STERADIAN. ) SOLID_ANGLE_UNIT ( ) );
#85 = EDGE_CURVE ( 'NONE', #140, #72, #86, .T. ) ;
#86 = CIRCLE ( 'NONE', #202, 1.757679999999990600 ) ;
#87 = VERTEX_POINT ( 'NONE', #163 ) ;
#88 = PRESENTATION_LAYER_ASSIGNMENT (  '', '', ( #188 ) ) ;
#89 = AXIS2_PLACEMENT_3D ( 'NONE', #16, #32, #197 ) ;
#90 = DIRECTION ( 'NONE',  ( 0.0000000000000000000, 1.000000000000000000, 0.0000000000000000000 ) ) ;
#91 = SURFACE_SIDE_STYLE ('',( #184 ) ) ;
#92 = FILL_AREA_STYLE_COLOUR ( '', #179 ) ;
#93 = CARTESIAN_POINT ( 'NONE',  ( 0.0000000000000000000, -2.578565597086843600E-019, -86.63506861788994200 ) ) ;
#94 = VERTEX_POINT ( 'NONE', #75 ) ;
#95 = AXIS2_PLACEMENT_3D ( 'NONE', #80, #3, #108 ) ;
#96 = FILL_AREA_STYLE ('',( #203 ) ) ;
#97 = DIRECTION ( 'NONE',  ( 0.0000000000000000000, 1.000000000000000000, -2.976353153785042500E-021 ) ) ;
#98 = CARTESIAN_POINT ( 'NONE',  ( 0.0000000000000000000, 4.004291593229845100E-037, 1.345368437930896200E-016 ) ) ;
#99 = SURFACE_STYLE_FILL_AREA ( #96 ) ;
#100 = ORIENTED_EDGE ( 'NONE', *, *, #35, .T. ) ;
#101 = EDGE_CURVE ( 'NONE', #72, #140, #173, .T. ) ;
#102 = EDGE_LOOP ( 'NONE', ( #129, #154, #104, #78 ) ) ;
#103 = AXIS2_PLACEMENT_3D ( 'NONE', #98, #37, #97 ) ;
#104 = ORIENTED_EDGE ( 'NONE', *, *, #48, .T. ) ;
#105 = ORIENTED_EDGE ( 'NONE', *, *, #101, .F. ) ;
#106 = ADVANCED_FACE ( 'NONE', ( #40 ), #1, .T. ) ;
#107 = AXIS2_PLACEMENT_3D ( 'NONE', #191, #12, #43 ) ;
#108 = DIRECTION ( 'NONE',  ( 0.0000000000000000000, -1.000000000000000000, 2.976353153778625600E-021 ) ) ;
#109 = LINE ( 'NONE', #193, #211 ) ;
#110 = CARTESIAN_POINT ( 'NONE',  ( 0.0000000000000000000, 1.757679999999990600, 1.345316123166782600E-016 ) ) ;
#111 = FILL_AREA_STYLE ('',( #92 ) ) ;
#112 = MECHANICAL_DESIGN_GEOMETRIC_PRESENTATION_REPRESENTATION (  '', ( #188 ), #122 ) ;
#113 = CARTESIAN_POINT ( 'NONE',  ( 0.0000000000000000000, 4.004291593229844300E-037, 1.345368437930896200E-016 ) ) ;
#114 = ORIENTED_EDGE ( 'NONE', *, *, #175, .F. ) ;
#115 = CARTESIAN_POINT ( 'NONE',  ( 2.690671482406656200E-016, 2.197100000000005200, -6.539345514167033400E-021 ) ) ;
#116 = CYLINDRICAL_SURFACE ( 'NONE', #95, 2.197100000000005200 ) ;
#117 =( NAMED_UNIT ( * ) PLANE_ANGLE_UNIT ( ) SI_UNIT ( $, .RADIAN. ) );
#118 = VECTOR ( 'NONE', #131, 1000.000000000000000 ) ;
#119 = AXIS2_PLACEMENT_3D ( 'NONE', #2, #126, #214 ) ;
#120 = ADVANCED_FACE ( 'NONE', ( #82 ), #62, .F. ) ;
#121 = ORIENTED_EDGE ( 'NONE', *, *, #186, .T. ) ;
#122 =( GEOMETRIC_REPRESENTATION_CONTEXT ( 3 ) GLOBAL_UNCERTAINTY_ASSIGNED_CONTEXT ( ( #36 ) ) GLOBAL_UNIT_ASSIGNED_CONTEXT ( ( #52, #117, #84 ) ) REPRESENTATION_CONTEXT ( 'NONE', 'WORKASPACE' ) );
#123 = ADVANCED_BREP_SHAPE_REPRESENTATION ( '03-0300', ( #67, #142 ), #194 ) ;
#124 = CONICAL_SURFACE ( 'NONE', #68, 2414.213562373052400, 1.178097245096166200 ) ;
#125 = DIRECTION ( 'NONE',  ( 0.0000000000000000000, -0.9238795325112843000, 0.3826834323650955000 ) ) ;
#126 = DIRECTION ( 'NONE',  ( 0.0000000000000000000, -2.976353153778626000E-021, -1.000000000000000000 ) ) ;
#127 = DIRECTION ( 'NONE',  ( -0.0000000000000000000, 2.976353153778625600E-021, 1.000000000000000000 ) ) ;
#128 = CARTESIAN_POINT ( 'NONE',  ( 0.0000000000000000000, -1.307869102833454700E-021, -0.4394200000000171900 ) ) ;
#129 = ORIENTED_EDGE ( 'NONE', *, *, #54, .T. ) ;
#130 = CARTESIAN_POINT ( 'NONE',  ( 0.0000000000000000000, 1.757679999999990600, 1.345316123166782600E-016 ) ) ;
#131 = DIRECTION ( 'NONE',  ( 0.0000000000000000000, 0.7071067811865454600, -0.7071067811865495700 ) ) ;
#132 = EDGE_CURVE ( 'NONE', #94, #87, #41, .T. ) ;
#133 = FACE_OUTER_BOUND ( 'NONE', #11, .T. ) ;
#134 = PRODUCT_DEFINITION_SHAPE ( 'NONE', 'NONE',  #146 ) ;
#135 = UNCERTAINTY_MEASURE_WITH_UNIT (LENGTH_MEASURE( 1.000000000000000100E-005 ), #33, 'distance_accuracy_value', 'NONE');
#136 = PRODUCT_CONTEXT ( 'NONE', #137, 'mechanical' ) ;
#137 = APPLICATION_CONTEXT ( 'automotive_design' ) ;
#138 = ORIENTED_EDGE ( 'NONE', *, *, #57, .T. ) ;
#139 = VECTOR ( 'NONE', #81, 1000.000000000000100 ) ;
#140 = VERTEX_POINT ( 'NONE', #130 ) ;
#141 = VECTOR ( 'NONE', #59, 1000.000000000000000 ) ;
#142 = AXIS2_PLACEMENT_3D ( 'NONE', #201, #151, #168 ) ;
#143 = CONICAL_SURFACE ( 'NONE', #103, 1.757679999999990600, 0.7853981633974452800 ) ;
#144 =( NAMED_UNIT ( * ) SI_UNIT ( $, .STERADIAN. ) SOLID_ANGLE_UNIT ( ) );
#145 = ORIENTED_EDGE ( 'NONE', *, *, #54, .F. ) ;
#146 = PRODUCT_DEFINITION ( 'UNKNOWN', '', #183, #213 ) ;
#147 = ORIENTED_EDGE ( 'NONE', *, *, #150, .T. ) ;
#148 = UNCERTAINTY_MEASURE_WITH_UNIT (LENGTH_MEASURE( 1.000000000000000100E-005 ), #167, 'distance_accuracy_value', 'NONE');
#149 = SURFACE_SIDE_STYLE ('',( #99 ) ) ;
#150 = EDGE_CURVE ( 'NONE', #192, #156, #10, .T. ) ;
#151 = DIRECTION ( 'NONE',  ( 0.0000000000000000000, 0.0000000000000000000, 1.000000000000000000 ) ) ;
#152 = VECTOR ( 'NONE', #83, 1000.000000000000000 ) ;
#153 = ORIENTED_EDGE ( 'NONE', *, *, #175, .T. ) ;
#154 = ORIENTED_EDGE ( 'NONE', *, *, #172, .T. ) ;
#155 = PRODUCT_RELATED_PRODUCT_CATEGORY ( 'part', '', ( #64 ) ) ;
#156 = VERTEX_POINT ( 'NONE', #61 ) ;
#157 = AXIS2_PLACEMENT_3D ( 'NONE', #128, #31, #60 ) ;
#158 = ADVANCED_FACE ( 'NONE', ( #169 ), #116, .T. ) ;
#159 = VECTOR ( 'NONE', #23, 1000.000000000000000 ) ;
#160 = EDGE_LOOP ( 'NONE', ( #114, #100, #176 ) ) ;
#161 = AXIS2_PLACEMENT_3D ( 'NONE', #65, #66, #8 ) ;
#162 = CARTESIAN_POINT ( 'NONE',  ( 0.0000000000000000000, 2.197099999999999800, 1.345303044475754300E-016 ) ) ;
#163 = CARTESIAN_POINT ( 'NONE',  ( 0.0000000000000000000, -2.197100000000010500, -85.72499999999999400 ) ) ;
#164 = PRESENTATION_STYLE_ASSIGNMENT (( #181 ) ) ;
#165 = CARTESIAN_POINT ( 'NONE',  ( 0.0000000000000000000, -2.551478741076726700E-019, -85.72499999999999400 ) ) ;
#166 = EDGE_LOOP ( 'NONE', ( #204, #212, #42, #147 ) ) ;
#167 =( LENGTH_UNIT ( ) NAMED_UNIT ( * ) SI_UNIT ( .MILLI., .METRE. ) );
#168 = DIRECTION ( 'NONE',  ( 1.000000000000000000, 0.0000000000000000000, 0.0000000000000000000 ) ) ;
#169 = FACE_OUTER_BOUND ( 'NONE', #102, .T. ) ;
#170 = CARTESIAN_POINT ( 'NONE',  ( 2.152537185925307800E-016, -1.757679999999990600, 1.345420752695009500E-016 ) ) ;
#171 = CIRCLE ( 'NONE', #157, 2.197100000000005200 ) ;
#172 = EDGE_CURVE ( 'NONE', #94, #156, #53, .T. ) ;
#173 = CIRCLE ( 'NONE', #79, 1.757679999999990600 ) ;
#174 = ADVANCED_FACE ( 'NONE', ( #45 ), #27, .T. ) ;
#175 = EDGE_CURVE ( 'NONE', #206, #94, #205, .T. ) ;
#176 = ORIENTED_EDGE ( 'NONE', *, *, #132, .F. ) ;
#177 = CARTESIAN_POINT ( 'NONE',  ( 2.421604334165981900E-016, -1.757679999999990600, 1.345420752695009500E-016 ) ) ;
#178 = DIRECTION ( 'NONE',  ( 0.0000000000000000000, 1.000000000000000000, -2.976353153785042500E-021 ) ) ;
#179 = COLOUR_RGB ( '',0.7921568627450980000, 0.8196078431372548800, 0.9333333333333333500 ) ;
#180 = CLOSED_SHELL ( 'NONE', ( #210, #158, #70, #120, #174, #14, #106 ) ) ;
#181 = SURFACE_STYLE_USAGE ( .BOTH. , #91 ) ;
#182 = DIRECTION ( 'NONE',  ( 0.0000000000000000000, -1.000000000000000000, 0.0000000000000000000 ) ) ;
#183 = PRODUCT_DEFINITION_FORMATION_WITH_SPECIFIED_SOURCE ( 'ANY', '', #64, .NOT_KNOWN. ) ;
#184 = SURFACE_STYLE_FILL_AREA ( #111 ) ;
#185 = APPLICATION_CONTEXT ( 'automotive_design' ) ;
#186 = EDGE_CURVE ( 'NONE', #72, #192, #51, .T. ) ;
#187 = EDGE_LOOP ( 'NONE', ( #47, #153, #145 ) ) ;
#188 = STYLED_ITEM ( 'NONE', ( #56 ), #123 ) ;
#189 = LINE ( 'NONE', #15, #141 ) ;
#190 = STYLED_ITEM ( 'NONE', ( #164 ), #67 ) ;
#191 = CARTESIAN_POINT ( 'NONE',  ( 0.0000000000000000000, 0.0000000000000000000, 0.0000000000000000000 ) ) ;
#192 = VERTEX_POINT ( 'NONE', #5 ) ;
#193 = CARTESIAN_POINT ( 'NONE',  ( 0.0000000000000000000, -2.578565597086843600E-019, -86.63506861788994200 ) ) ;
#194 =( GEOMETRIC_REPRESENTATION_CONTEXT ( 3 ) GLOBAL_UNCERTAINTY_ASSIGNED_CONTEXT ( ( #148 ) ) GLOBAL_UNIT_ASSIGNED_CONTEXT ( ( #167, #25, #21 ) ) REPRESENTATION_CONTEXT ( 'NONE', 'WORKASPACE' ) );
#195 = DIRECTION ( 'NONE',  ( 0.0000000000000000000, 1.000000000000000000, -2.976353153785042500E-021 ) ) ;
#196 = ORIENTED_EDGE ( 'NONE', *, *, #150, .F. ) ;
#197 = DIRECTION ( 'NONE',  ( 0.0000000000000000000, -1.000000000000000000, 0.0000000000000000000 ) ) ;
#198 = MECHANICAL_DESIGN_GEOMETRIC_PRESENTATION_REPRESENTATION (  '', ( #190 ), #39 ) ;
#199 = DIRECTION ( 'NONE',  ( 0.0000000000000000000, 1.000000000000000000, -2.976353153778625600E-021 ) ) ;
#200 = ORIENTED_EDGE ( 'NONE', *, *, #85, .T. ) ;
#201 = CARTESIAN_POINT ( 'NONE',  ( 0.0000000000000000000, 0.0000000000000000000, 0.0000000000000000000 ) ) ;
#202 = AXIS2_PLACEMENT_3D ( 'NONE', #44, #127, #178 ) ;
#203 = FILL_AREA_STYLE_COLOUR ( '', #69 ) ;
#204 = ORIENTED_EDGE ( 'NONE', *, *, #172, .F. ) ;
#205 = LINE ( 'NONE', #93, #139 ) ;
#206 = VERTEX_POINT ( 'NONE', #50 ) ;
#207 = PRESENTATION_LAYER_ASSIGNMENT (  '', '', ( #190 ) ) ;
#208 = ORIENTED_EDGE ( 'NONE', *, *, #48, .F. ) ;
#209 = AXIS2_PLACEMENT_3D ( 'NONE', #162, #17, #199 ) ;
#210 = ADVANCED_FACE ( 'NONE', ( #133 ), #143, .T. ) ;
#211 = VECTOR ( 'NONE', #125, 1000.000000000000100 ) ;
#212 = ORIENTED_EDGE ( 'NONE', *, *, #132, .T. ) ;
#213 = PRODUCT_DEFINITION_CONTEXT ( 'detailed design', #185, 'design' ) ;
#214 = DIRECTION ( 'NONE',  ( 0.0000000000000000000, 1.000000000000000000, -2.976353153785042500E-021 ) ) ;
ENDSEC;
END-ISO-10303-21;
