ISO-10303-21;
HEADER;
FILE_DESCRIPTION (( 'STEP AP214' ),
    '1' );
FILE_NAME ('03-0301.STEP',
    '2020-07-23T06:30:08',
    ( '' ),
    ( '' ),
    'SwSTEP 2.0',
    'SolidWorks 2014',
    '' );
FILE_SCHEMA (( 'AUTOMOTIVE_DESIGN' ));
ENDSEC;

DATA;
#1 = MECHANICAL_DESIGN_GEOMETRIC_PRESENTATION_REPRESENTATION (  '', ( #116 ), #127 ) ;
#2 = CARTESIAN_POINT ( 'NONE',  ( 0.0000000000000000000, 1.356069487330101100E-017, 916.5583431749576000 ) ) ;
#3 = FACE_OUTER_BOUND ( 'NONE', #81, .T. ) ;
#4 = ORIENTED_EDGE ( 'NONE', *, *, #156, .T. ) ;
#5 = CARTESIAN_POINT ( 'NONE',  ( 0.0000000000000000000, -1.234538811798370900E-018, -83.44165682504245800 ) ) ;
#6 = DIRECTION ( 'NONE',  ( 0.0000000000000000000, -1.000000000000000000, 0.0000000000000000000 ) ) ;
#7 = EDGE_CURVE ( 'NONE', #24, #12, #107, .T. ) ;
#8 = EDGE_LOOP ( 'NONE', ( #187, #148, #40, #4 ) ) ;
#9 = FILL_AREA_STYLE_COLOUR ( '', #67 ) ;
#10 = PRODUCT_RELATED_PRODUCT_CATEGORY ( 'part', '', ( #50 ) ) ;
#11 = VECTOR ( 'NONE', #119, 1000.000000000000200 ) ;
#12 = VERTEX_POINT ( 'NONE', #33 ) ;
#13 = AXIS2_PLACEMENT_3D ( 'NONE', #155, #153, #16 ) ;
#14 = LINE ( 'NONE', #135, #96 ) ;
#15 = ORIENTED_EDGE ( 'NONE', *, *, #183, .F. ) ;
#16 = DIRECTION ( 'NONE',  ( 0.0000000000000000000, -1.000000000000000000, 1.479523368509938000E-020 ) ) ;
#17 = VECTOR ( 'NONE', #201, 1000.000000000000000 ) ;
#18 = FILL_AREA_STYLE_COLOUR ( '', #133 ) ;
#19 = PRESENTATION_LAYER_ASSIGNMENT (  '', '', ( #39 ) ) ;
#20 = LINE ( 'NONE', #143, #175 ) ;
#21 = DIRECTION ( 'NONE',  ( -0.0000000000000000000, 1.479523368509938300E-020, 1.000000000000000000 ) ) ;
#22 = ORIENTED_EDGE ( 'NONE', *, *, #60, .F. ) ;
#23 =( NAMED_UNIT ( * ) PLANE_ANGLE_UNIT ( ) SI_UNIT ( $, .RADIAN. ) );
#24 = VERTEX_POINT ( 'NONE', #99 ) ;
#25 = SURFACE_STYLE_FILL_AREA ( #141 ) ;
#26 = SURFACE_STYLE_USAGE ( .BOTH. , #74 ) ;
#27 = UNCERTAINTY_MEASURE_WITH_UNIT (LENGTH_MEASURE( 1.000000000000000100E-005 ), #157, 'distance_accuracy_value', 'NONE');
#28 = AXIS2_PLACEMENT_3D ( 'NONE', #101, #79, #122 ) ;
#29 = ORIENTED_EDGE ( 'NONE', *, *, #156, .F. ) ;
#30 = AXIS2_PLACEMENT_3D ( 'NONE', #190, #160, #209 ) ;
#31 = CONICAL_SURFACE ( 'NONE', #72, 2414.213562373071900, 1.178097245096169100 ) ;
#32 = CIRCLE ( 'NONE', #98, 2.152650000000005300 ) ;
#33 = CARTESIAN_POINT ( 'NONE',  ( 2.636235932184555900E-016, 2.152650000000005300, -0.4305299999999887600 ) ) ;
#34 = DIRECTION ( 'NONE',  ( -0.0000000000000000000, 1.479523368509938300E-020, 1.000000000000000000 ) ) ;
#35 = SURFACE_STYLE_USAGE ( .BOTH. , #137 ) ;
#36 = CYLINDRICAL_SURFACE ( 'NONE', #130, 2.152650000000005300 ) ;
#37 =( LENGTH_UNIT ( ) NAMED_UNIT ( * ) SI_UNIT ( .MILLI., .METRE. ) );
#38 = DIRECTION ( 'NONE',  ( 0.0000000000000000000, -1.479523368509938300E-020, -1.000000000000000000 ) ) ;
#39 = STYLED_ITEM ( 'NONE', ( #77 ), #134 ) ;
#40 = ORIENTED_EDGE ( 'NONE', *, *, #70, .T. ) ;
#41 = CARTESIAN_POINT ( 'NONE',  ( 2.372612338966106500E-016, -1.722120000000014500, 1.318532002569573700E-016 ) ) ;
#42 = DIRECTION ( 'NONE',  ( -0.0000000000000000000, 1.479523368509938300E-020, 1.000000000000000000 ) ) ;
#43 = VECTOR ( 'NONE', #21, 1000.000000000000000 ) ;
#44 = AXIS2_PLACEMENT_3D ( 'NONE', #139, #211, #111 ) ;
#45 = UNCERTAINTY_MEASURE_WITH_UNIT (LENGTH_MEASURE( 1.000000000000000100E-005 ), #37, 'distance_accuracy_value', 'NONE');
#46 = EDGE_CURVE ( 'NONE', #176, #104, #194, .T. ) ;
#47 = ORIENTED_EDGE ( 'NONE', *, *, #177, .F. ) ;
#48 = ADVANCED_FACE ( 'NONE', ( #149 ), #106, .T. ) ;
#49 = ORIENTED_EDGE ( 'NONE', *, *, #197, .T. ) ;
#50 = PRODUCT ( '03-0301', '03-0301', '', ( #162 ) ) ;
#51 = DIRECTION ( 'NONE',  ( 0.0000000000000000000, 1.000000000000000000, 0.0000000000000000000 ) ) ;
#52 = DIRECTION ( 'NONE',  ( 0.0000000000000000000, -1.000000000000000000, 0.0000000000000000000 ) ) ;
#53 = CONICAL_SURFACE ( 'NONE', #189, 1.722120000000014500, 0.7853981633974502800 ) ;
#54 = CARTESIAN_POINT ( 'NONE',  ( 0.0000000000000000000, 1.950421939687687500E-036, 1.318277210891235800E-016 ) ) ;
#55 = VERTEX_POINT ( 'NONE', #120 ) ;
#56 =( NAMED_UNIT ( * ) PLANE_ANGLE_UNIT ( ) SI_UNIT ( $, .RADIAN. ) );
#57 = LINE ( 'NONE', #124, #43 ) ;
#58 = DIRECTION ( 'NONE',  ( 0.0000000000000000000, -1.479523368509938300E-020, -1.000000000000000000 ) ) ;
#59 = ORIENTED_EDGE ( 'NONE', *, *, #103, .T. ) ;
#60 = EDGE_CURVE ( 'NONE', #204, #104, #90, .T. ) ;
#61 = SURFACE_STYLE_FILL_AREA ( #203 ) ;
#62 = ADVANCED_FACE ( 'NONE', ( #100 ), #185, .T. ) ;
#63 = ADVANCED_FACE ( 'NONE', ( #114 ), #89, .T. ) ;
#64 = EDGE_LOOP ( 'NONE', ( #131, #165 ) ) ;
#65 = ORIENTED_EDGE ( 'NONE', *, *, #7, .T. ) ;
#66 = DIRECTION ( 'NONE',  ( 0.0000000000000000000, -1.000000000000000000, 0.0000000000000000000 ) ) ;
#67 = COLOUR_RGB ( '',0.7921568627450980000, 0.8196078431372548800, 0.9333333333333333500 ) ;
#68 =( NAMED_UNIT ( * ) SI_UNIT ( $, .STERADIAN. ) SOLID_ANGLE_UNIT ( ) );
#69 = DIRECTION ( 'NONE',  ( 0.0000000000000000000, 1.000000000000000000, -1.479523368509255800E-020 ) ) ;
#70 = EDGE_CURVE ( 'NONE', #176, #55, #14, .T. ) ;
#71 = DIRECTION ( 'NONE',  ( 0.0000000000000000000, -1.000000000000000000, 1.479523368509938000E-020 ) ) ;
#72 = AXIS2_PLACEMENT_3D ( 'NONE', #146, #83, #6 ) ;
#73 =( NAMED_UNIT ( * ) SI_UNIT ( $, .STERADIAN. ) SOLID_ANGLE_UNIT ( ) );
#74 = SURFACE_SIDE_STYLE ('',( #25 ) ) ;
#75 = LINE ( 'NONE', #168, #113 ) ;
#76 = PRODUCT_DEFINITION_SHAPE ( 'NONE', 'NONE',  #150 ) ;
#77 = PRESENTATION_STYLE_ASSIGNMENT (( #26 ) ) ;
#78 = AXIS2_PLACEMENT_3D ( 'NONE', #102, #42, #171 ) ;
#79 = DIRECTION ( 'NONE',  ( 0.0000000000000000000, -1.479523368509938300E-020, -1.000000000000000000 ) ) ;
#80 = AXIS2_PLACEMENT_3D ( 'NONE', #105, #125, #174 ) ;
#81 = EDGE_LOOP ( 'NONE', ( #22, #142, #123 ) ) ;
#82 = CARTESIAN_POINT ( 'NONE',  ( 0.0000000000000000000, 1.722120000000014500, 1.318022419212898200E-016 ) ) ;
#83 = DIRECTION ( 'NONE',  ( -0.0000000000000000000, 1.479523368509938300E-020, 1.000000000000000000 ) ) ;
#84 = APPLICATION_PROTOCOL_DEFINITION ( 'draft international standard', 'automotive_design', 1998, #186 ) ;
#85 = DIRECTION ( 'NONE',  ( 0.0000000000000000000, 1.000000000000000000, -1.479523368509255800E-020 ) ) ;
#86 = ORIENTED_EDGE ( 'NONE', *, *, #172, .T. ) ;
#87 = CARTESIAN_POINT ( 'NONE',  ( 0.0000000000000000000, 0.0000000000000000000, 0.0000000000000000000 ) ) ;
#88 = CARTESIAN_POINT ( 'NONE',  ( 0.0000000000000000000, 1.950421939687687500E-036, 1.318277210891235800E-016 ) ) ;
#89 = CONICAL_SURFACE ( 'NONE', #178, 2414.213562373071900, 1.178097245096169100 ) ;
#90 = LINE ( 'NONE', #5, #11 ) ;
#91 = SHAPE_DEFINITION_REPRESENTATION ( #76, #134 ) ;
#92 = APPLICATION_CONTEXT ( 'automotive_design' ) ;
#93 = CIRCLE ( 'NONE', #140, 2.152650000000005300 ) ;
#94 =( GEOMETRIC_REPRESENTATION_CONTEXT ( 3 ) GLOBAL_UNCERTAINTY_ASSIGNED_CONTEXT ( ( #45 ) ) GLOBAL_UNIT_ASSIGNED_CONTEXT ( ( #37, #56, #170 ) ) REPRESENTATION_CONTEXT ( 'NONE', 'WORKASPACE' ) );
#95 = MANIFOLD_SOLID_BREP ( '¸ðµû±â1', #115 ) ;
#96 = VECTOR ( 'NONE', #34, 1000.000000000000000 ) ;
#97 = ORIENTED_EDGE ( 'NONE', *, *, #207, .F. ) ;
#98 = AXIS2_PLACEMENT_3D ( 'NONE', #158, #38, #205 ) ;
#99 = CARTESIAN_POINT ( 'NONE',  ( 0.0000000000000000000, 1.722120000000014500, 1.318022419212898200E-016 ) ) ;
#100 = FACE_OUTER_BOUND ( 'NONE', #173, .T. ) ;
#101 = CARTESIAN_POINT ( 'NONE',  ( 0.0000000000000000000, 1.950421939687687500E-036, 1.318277210891235800E-016 ) ) ;
#102 = CARTESIAN_POINT ( 'NONE',  ( 0.0000000000000000000, 1.950421939687687500E-036, 1.318277210891235800E-016 ) ) ;
#103 = EDGE_CURVE ( 'NONE', #12, #55, #93, .T. ) ;
#104 = VERTEX_POINT ( 'NONE', #202 ) ;
#105 = CARTESIAN_POINT ( 'NONE',  ( 0.0000000000000000000, 2.152650000000000000, 1.317958721293313600E-016 ) ) ;
#106 = CONICAL_SURFACE ( 'NONE', #28, 1.722120000000014500, 0.7853981633974502800 ) ;
#107 = LINE ( 'NONE', #82, #17 ) ;
#108 = CARTESIAN_POINT ( 'NONE',  ( 0.0000000000000000000, -2.152650000000009300, -82.54999999999999700 ) ) ;
#109 = ORIENTED_EDGE ( 'NONE', *, *, #172, .F. ) ;
#110 = PRODUCT_DEFINITION_CONTEXT ( 'detailed design', #92, 'design' ) ;
#111 = DIRECTION ( 'NONE',  ( 1.000000000000000000, 0.0000000000000000000, 0.0000000000000000000 ) ) ;
#112 = AXIS2_PLACEMENT_3D ( 'NONE', #117, #167, #66 ) ;
#113 = VECTOR ( 'NONE', #188, 1000.000000000000200 ) ;
#114 = FACE_OUTER_BOUND ( 'NONE', #192, .T. ) ;
#115 = CLOSED_SHELL ( 'NONE', ( #48, #62, #63, #199, #163, #195, #196 ) ) ;
#116 = STYLED_ITEM ( 'NONE', ( #147 ), #95 ) ;
#117 = CARTESIAN_POINT ( 'NONE',  ( 0.0000000000000000000, -1.221346540704954100E-018, -82.54999999999999700 ) ) ;
#118 = DIRECTION ( 'NONE',  ( 0.0000000000000000000, -1.479523368509938300E-020, -1.000000000000000000 ) ) ;
#119 = DIRECTION ( 'NONE',  ( 1.131426112287698800E-016, 0.9238795325112855200, 0.3826834323650928900 ) ) ;
#120 = CARTESIAN_POINT ( 'NONE',  ( 0.0000000000000000000, -2.152650000000005300, -0.4305299999999887600 ) ) ;
#121 = PRESENTATION_LAYER_ASSIGNMENT (  '', '', ( #116 ) ) ;
#122 = DIRECTION ( 'NONE',  ( 0.0000000000000000000, 1.000000000000000000, -1.479523368509255800E-020 ) ) ;
#123 = ORIENTED_EDGE ( 'NONE', *, *, #164, .F. ) ;
#124 = CARTESIAN_POINT ( 'NONE',  ( 2.636235932184555900E-016, 2.152650000000005300, -3.184895979222926200E-020 ) ) ;
#125 = DIRECTION ( 'NONE',  ( 0.0000000000000000000, -1.479523368509938300E-020, -1.000000000000000000 ) ) ;
#126 = PLANE ( 'NONE',  #80 ) ;
#127 =( GEOMETRIC_REPRESENTATION_CONTEXT ( 3 ) GLOBAL_UNCERTAINTY_ASSIGNED_CONTEXT ( ( #27 ) ) GLOBAL_UNIT_ASSIGNED_CONTEXT ( ( #157, #166, #68 ) ) REPRESENTATION_CONTEXT ( 'NONE', 'WORKASPACE' ) );
#128 = DIRECTION ( 'NONE',  ( -0.0000000000000000000, 1.479523368509938300E-020, 1.000000000000000000 ) ) ;
#129 = UNCERTAINTY_MEASURE_WITH_UNIT (LENGTH_MEASURE( 1.000000000000000100E-005 ), #169, 'distance_accuracy_value', 'NONE');
#130 = AXIS2_PLACEMENT_3D ( 'NONE', #87, #191, #71 ) ;
#131 = ORIENTED_EDGE ( 'NONE', *, *, #177, .T. ) ;
#132 = FACE_OUTER_BOUND ( 'NONE', #181, .T. ) ;
#133 = COLOUR_RGB ( '',0.7921568627450980000, 0.8196078431372548800, 0.9333333333333333500 ) ;
#134 = ADVANCED_BREP_SHAPE_REPRESENTATION ( '03-0301', ( #95, #44 ), #200 ) ;
#135 = CARTESIAN_POINT ( 'NONE',  ( 0.0000000000000000000, -2.152650000000005300, 3.184895979222926200E-020 ) ) ;
#136 = ORIENTED_EDGE ( 'NONE', *, *, #7, .F. ) ;
#137 = SURFACE_SIDE_STYLE ('',( #61 ) ) ;
#138 = DIRECTION ( 'NONE',  ( -0.0000000000000000000, 1.479523368509938300E-020, 1.000000000000000000 ) ) ;
#139 = CARTESIAN_POINT ( 'NONE',  ( 0.0000000000000000000, 0.0000000000000000000, 0.0000000000000000000 ) ) ;
#140 = AXIS2_PLACEMENT_3D ( 'NONE', #152, #118, #51 ) ;
#141 = FILL_AREA_STYLE ('',( #9 ) ) ;
#142 = ORIENTED_EDGE ( 'NONE', *, *, #183, .T. ) ;
#143 = CARTESIAN_POINT ( 'NONE',  ( 2.108988745747657500E-016, -1.722120000000014500, 1.318532002569573700E-016 ) ) ;
#144 = AXIS2_PLACEMENT_3D ( 'NONE', #88, #128, #85 ) ;
#145 = DIRECTION ( 'NONE',  ( 8.659560562354950100E-017, -0.7071067811865489100, -0.7071067811865462400 ) ) ;
#146 = CARTESIAN_POINT ( 'NONE',  ( 0.0000000000000000000, 1.356069487330101100E-017, 916.5583431749576000 ) ) ;
#147 = PRESENTATION_STYLE_ASSIGNMENT (( #35 ) ) ;
#148 = ORIENTED_EDGE ( 'NONE', *, *, #164, .T. ) ;
#149 = FACE_OUTER_BOUND ( 'NONE', #182, .T. ) ;
#150 = PRODUCT_DEFINITION ( 'UNKNOWN', '', #213, #110 ) ;
#151 = ORIENTED_EDGE ( 'NONE', *, *, #70, .F. ) ;
#152 = CARTESIAN_POINT ( 'NONE',  ( 0.0000000000000000000, -6.369791958445670700E-021, -0.4305299999999887600 ) ) ;
#153 = DIRECTION ( 'NONE',  ( -0.0000000000000000000, 1.479523368509938300E-020, 1.000000000000000000 ) ) ;
#154 = ORIENTED_EDGE ( 'NONE', *, *, #46, .T. ) ;
#155 = CARTESIAN_POINT ( 'NONE',  ( 0.0000000000000000000, 0.0000000000000000000, 0.0000000000000000000 ) ) ;
#156 = EDGE_CURVE ( 'NONE', #55, #12, #32, .T. ) ;
#157 =( LENGTH_UNIT ( ) NAMED_UNIT ( * ) SI_UNIT ( .MILLI., .METRE. ) );
#158 = CARTESIAN_POINT ( 'NONE',  ( 0.0000000000000000000, -6.369791958445670700E-021, -0.4305299999999887600 ) ) ;
#159 = ORIENTED_EDGE ( 'NONE', *, *, #103, .F. ) ;
#160 = DIRECTION ( 'NONE',  ( -0.0000000000000000000, 1.479523368509938300E-020, 1.000000000000000000 ) ) ;
#161 = FACE_OUTER_BOUND ( 'NONE', #64, .T. ) ;
#162 = PRODUCT_CONTEXT ( 'NONE', #186, 'mechanical' ) ;
#163 = ADVANCED_FACE ( 'NONE', ( #3 ), #31, .T. ) ;
#164 = EDGE_CURVE ( 'NONE', #104, #176, #198, .T. ) ;
#165 = ORIENTED_EDGE ( 'NONE', *, *, #207, .T. ) ;
#166 =( NAMED_UNIT ( * ) PLANE_ANGLE_UNIT ( ) SI_UNIT ( $, .RADIAN. ) );
#167 = DIRECTION ( 'NONE',  ( -0.0000000000000000000, 1.479523368509938300E-020, 1.000000000000000000 ) ) ;
#168 = CARTESIAN_POINT ( 'NONE',  ( 0.0000000000000000000, -1.234538811798370900E-018, -83.44165682504245800 ) ) ;
#169 =( LENGTH_UNIT ( ) NAMED_UNIT ( * ) SI_UNIT ( .MILLI., .METRE. ) );
#170 =( NAMED_UNIT ( * ) SI_UNIT ( $, .STERADIAN. ) SOLID_ANGLE_UNIT ( ) );
#171 = DIRECTION ( 'NONE',  ( 0.0000000000000000000, 1.000000000000000000, -1.479523368509255800E-020 ) ) ;
#172 = EDGE_CURVE ( 'NONE', #179, #55, #20, .T. ) ;
#173 = EDGE_LOOP ( 'NONE', ( #154, #49, #59, #151 ) ) ;
#174 = DIRECTION ( 'NONE',  ( 0.0000000000000000000, 1.000000000000000000, -1.479523368509938300E-020 ) ) ;
#175 = VECTOR ( 'NONE', #145, 1000.000000000000000 ) ;
#176 = VERTEX_POINT ( 'NONE', #108 ) ;
#177 = EDGE_CURVE ( 'NONE', #24, #179, #180, .T. ) ;
#178 = AXIS2_PLACEMENT_3D ( 'NONE', #2, #138, #52 ) ;
#179 = VERTEX_POINT ( 'NONE', #41 ) ;
#180 = CIRCLE ( 'NONE', #78, 1.722120000000014500 ) ;
#181 = EDGE_LOOP ( 'NONE', ( #109, #47, #65, #29 ) ) ;
#182 = EDGE_LOOP ( 'NONE', ( #97, #86, #159, #136 ) ) ;
#183 = EDGE_CURVE ( 'NONE', #204, #176, #75, .T. ) ;
#184 = MECHANICAL_DESIGN_GEOMETRIC_PRESENTATION_REPRESENTATION (  '', ( #39 ), #94 ) ;
#185 = CYLINDRICAL_SURFACE ( 'NONE', #13, 2.152650000000005300 ) ;
#186 = APPLICATION_CONTEXT ( 'automotive_design' ) ;
#187 = ORIENTED_EDGE ( 'NONE', *, *, #197, .F. ) ;
#188 = DIRECTION ( 'NONE',  ( 0.0000000000000000000, -0.9238795325112855200, 0.3826834323650928900 ) ) ;
#189 = AXIS2_PLACEMENT_3D ( 'NONE', #54, #58, #69 ) ;
#190 = CARTESIAN_POINT ( 'NONE',  ( 0.0000000000000000000, -1.221346540704954100E-018, -82.54999999999999700 ) ) ;
#191 = DIRECTION ( 'NONE',  ( -0.0000000000000000000, 1.479523368509938300E-020, 1.000000000000000000 ) ) ;
#192 = EDGE_LOOP ( 'NONE', ( #15, #208, #214 ) ) ;
#193 = FACE_OUTER_BOUND ( 'NONE', #8, .T. ) ;
#194 = CIRCLE ( 'NONE', #112, 2.152650000000009700 ) ;
#195 = ADVANCED_FACE ( 'NONE', ( #193 ), #36, .T. ) ;
#196 = ADVANCED_FACE ( 'NONE', ( #132 ), #53, .T. ) ;
#197 = EDGE_CURVE ( 'NONE', #104, #12, #57, .T. ) ;
#198 = CIRCLE ( 'NONE', #30, 2.152650000000009700 ) ;
#199 = ADVANCED_FACE ( 'NONE', ( #161 ), #126, .F. ) ;
#200 =( GEOMETRIC_REPRESENTATION_CONTEXT ( 3 ) GLOBAL_UNCERTAINTY_ASSIGNED_CONTEXT ( ( #129 ) ) GLOBAL_UNIT_ASSIGNED_CONTEXT ( ( #169, #23, #73 ) ) REPRESENTATION_CONTEXT ( 'NONE', 'WORKASPACE' ) );
#201 = DIRECTION ( 'NONE',  ( 0.0000000000000000000, 0.7071067811865489100, -0.7071067811865462400 ) ) ;
#202 = CARTESIAN_POINT ( 'NONE',  ( 2.636235932184561800E-016, 2.152650000000009300, -82.54999999999999700 ) ) ;
#203 = FILL_AREA_STYLE ('',( #18 ) ) ;
#204 = VERTEX_POINT ( 'NONE', #206 ) ;
#205 = DIRECTION ( 'NONE',  ( 0.0000000000000000000, 1.000000000000000000, 0.0000000000000000000 ) ) ;
#206 = CARTESIAN_POINT ( 'NONE',  ( 0.0000000000000000000, -1.234538811798370900E-018, -83.44165682504245800 ) ) ;
#207 = EDGE_CURVE ( 'NONE', #179, #24, #210, .T. ) ;
#208 = ORIENTED_EDGE ( 'NONE', *, *, #60, .T. ) ;
#209 = DIRECTION ( 'NONE',  ( 0.0000000000000000000, -1.000000000000000000, 0.0000000000000000000 ) ) ;
#210 = CIRCLE ( 'NONE', #144, 1.722120000000014500 ) ;
#211 = DIRECTION ( 'NONE',  ( 0.0000000000000000000, 0.0000000000000000000, 1.000000000000000000 ) ) ;
#212 = APPLICATION_PROTOCOL_DEFINITION ( 'draft international standard', 'automotive_design', 1998, #92 ) ;
#213 = PRODUCT_DEFINITION_FORMATION_WITH_SPECIFIED_SOURCE ( 'ANY', '', #50, .NOT_KNOWN. ) ;
#214 = ORIENTED_EDGE ( 'NONE', *, *, #46, .F. ) ;
ENDSEC;
END-ISO-10303-21;
