ISO-10303-21;
HEADER;
FILE_DESCRIPTION (( 'STEP AP214' ),
    '1' );
FILE_NAME ('03-0302.STEP',
    '2020-07-23T06:30:49',
    ( '' ),
    ( '' ),
    'SwSTEP 2.0',
    'SolidWorks 2014',
    '' );
FILE_SCHEMA (( 'AUTOMOTIVE_DESIGN' ));
ENDSEC;

DATA;
#1 = DIRECTION ( 'NONE',  ( 0.0000000000000000000, 1.000000000000000000, 0.0000000000000000000 ) ) ;
#2 = UNCERTAINTY_MEASURE_WITH_UNIT (LENGTH_MEASURE( 1.000000000000000100E-005 ), #8, 'distance_accuracy_value', 'NONE');
#3 = SURFACE_SIDE_STYLE ('',( #65 ) ) ;
#4 = DIRECTION ( 'NONE',  ( -0.0000000000000000000, -3.849149151066323200E-020, 1.000000000000000000 ) ) ;
#5 = LINE ( 'NONE', #188, #99 ) ;
#6 = ORIENTED_EDGE ( 'NONE', *, *, #121, .F. ) ;
#7 = EDGE_CURVE ( 'NONE', #214, #160, #174, .T. ) ;
#8 =( LENGTH_UNIT ( ) NAMED_UNIT ( * ) SI_UNIT ( .MILLI., .METRE. ) );
#9 = CARTESIAN_POINT ( 'NONE',  ( 2.065440305569955700E-016, -1.686559999999996700, 1.289845270069988600E-016 ) ) ;
#10 = DIRECTION ( 'NONE',  ( 0.0000000000000000000, 0.0000000000000000000, 1.000000000000000000 ) ) ;
#11 = ORIENTED_EDGE ( 'NONE', *, *, #93, .F. ) ;
#12 =( GEOMETRIC_REPRESENTATION_CONTEXT ( 3 ) GLOBAL_UNCERTAINTY_ASSIGNED_CONTEXT ( ( #139 ) ) GLOBAL_UNIT_ASSIGNED_CONTEXT ( ( #79, #207, #149 ) ) REPRESENTATION_CONTEXT ( 'NONE', 'WORKASPACE' ) );
#13 = APPLICATION_PROTOCOL_DEFINITION ( 'draft international standard', 'automotive_design', 1998, #29 ) ;
#14 = AXIS2_PLACEMENT_3D ( 'NONE', #198, #170, #199 ) ;
#15 = ORIENTED_EDGE ( 'NONE', *, *, #54, .F. ) ;
#16 = ORIENTED_EDGE ( 'NONE', *, *, #82, .F. ) ;
#17 = DIRECTION ( 'NONE',  ( 0.0000000000000000000, 1.000000000000000000, 3.849149151066323200E-020 ) ) ;
#18 = DIRECTION ( 'NONE',  ( 0.0000000000000000000, 3.849149151066323800E-020, -1.000000000000000000 ) ) ;
#19 = CIRCLE ( 'NONE', #77, 2.108200000000009800 ) ;
#20 = DIRECTION ( 'NONE',  ( -0.0000000000000000000, -3.849149151066323200E-020, 1.000000000000000000 ) ) ;
#21 = ORIENTED_EDGE ( 'NONE', *, *, #54, .T. ) ;
#22 = ORIENTED_EDGE ( 'NONE', *, *, #72, .T. ) ;
#23 = CARTESIAN_POINT ( 'NONE',  ( 0.0000000000000000000, -4.967305625022918200E-036, 1.290494452169210900E-016 ) ) ;
#24 = CLOSED_SHELL ( 'NONE', ( #31, #51, #33, #86, #120, #48, #212 ) ) ;
#25 = SURFACE_SIDE_STYLE ('',( #209 ) ) ;
#26 = AXIS2_PLACEMENT_3D ( 'NONE', #44, #66, #205 ) ;
#27 =( NAMED_UNIT ( * ) SI_UNIT ( $, .STERADIAN. ) SOLID_ANGLE_UNIT ( ) );
#28 = EDGE_LOOP ( 'NONE', ( #15, #165, #11 ) ) ;
#29 = APPLICATION_CONTEXT ( 'automotive_design' ) ;
#30 = LINE ( 'NONE', #136, #163 ) ;
#31 = ADVANCED_FACE ( 'NONE', ( #42 ), #87, .T. ) ;
#32 = DIRECTION ( 'NONE',  ( 1.000000000000000000, 0.0000000000000000000, 0.0000000000000000000 ) ) ;
#33 = ADVANCED_FACE ( 'NONE', ( #200 ), #132, .T. ) ;
#34 = PRODUCT_DEFINITION ( 'UNKNOWN', '', #102, #204 ) ;
#35 = ORIENTED_EDGE ( 'NONE', *, *, #133, .T. ) ;
#36 = CARTESIAN_POINT ( 'NONE',  ( 0.0000000000000000000, -4.967305625022918900E-036, 1.290494452169210900E-016 ) ) ;
#37 = SURFACE_STYLE_USAGE ( .BOTH. , #3 ) ;
#38 = DIRECTION ( 'NONE',  ( 0.0000000000000000000, -1.000000000000000000, 0.0000000000000000000 ) ) ;
#39 = DIRECTION ( 'NONE',  ( 0.0000000000000000000, 0.7071067811865483500, -0.7071067811865468000 ) ) ;
#40 = VERTEX_POINT ( 'NONE', #148 ) ;
#41 = EDGE_CURVE ( 'NONE', #210, #122, #169, .T. ) ;
#42 = FACE_OUTER_BOUND ( 'NONE', #147, .T. ) ;
#43 = COLOUR_RGB ( '',0.7921568627450980000, 0.8196078431372548800, 0.9333333333333333500 ) ;
#44 = CARTESIAN_POINT ( 'NONE',  ( 0.0000000000000000000, -4.967305625022918900E-036, 1.290494452169210900E-016 ) ) ;
#45 = FILL_AREA_STYLE ('',( #141 ) ) ;
#46 = EDGE_CURVE ( 'NONE', #160, #211, #19, .T. ) ;
#47 = AXIS2_PLACEMENT_3D ( 'NONE', #23, #177, #129 ) ;
#48 = ADVANCED_FACE ( 'NONE', ( #128 ), #124, .T. ) ;
#49 = FACE_OUTER_BOUND ( 'NONE', #28, .T. ) ;
#50 = ORIENTED_EDGE ( 'NONE', *, *, #93, .T. ) ;
#51 = ADVANCED_FACE ( 'NONE', ( #78 ), #112, .T. ) ;
#52 = CARTESIAN_POINT ( 'NONE',  ( 0.0000000000000000000, 0.0000000000000000000, 0.0000000000000000000 ) ) ;
#53 = DIRECTION ( 'NONE',  ( -0.0000000000000000000, -3.849149151066323200E-020, 1.000000000000000000 ) ) ;
#54 = EDGE_CURVE ( 'NONE', #214, #211, #30, .T. ) ;
#55 = CARTESIAN_POINT ( 'NONE',  ( 0.0000000000000000000, -4.967305625022918200E-036, 1.290494452169210900E-016 ) ) ;
#56 = VECTOR ( 'NONE', #81, 1000.000000000000000 ) ;
#57 = CARTESIAN_POINT ( 'NONE',  ( 0.0000000000000000000, 2.108200000000000100, 1.291305929793238700E-016 ) ) ;
#58 = DIRECTION ( 'NONE',  ( 0.0000000000000000000, -0.9238795325112845200, 0.3826834323650951700 ) ) ;
#59 = ORIENTED_EDGE ( 'NONE', *, *, #159, .F. ) ;
#60 = EDGE_CURVE ( 'NONE', #158, #40, #75, .T. ) ;
#61 = CIRCLE ( 'NONE', #26, 1.686559999999996700 ) ;
#62 = APPLICATION_PROTOCOL_DEFINITION ( 'draft international standard', 'automotive_design', 1998, #98 ) ;
#63 = CARTESIAN_POINT ( 'NONE',  ( 2.581800381962462000E-016, 2.108200000000010300, -82.54999999999999700 ) ) ;
#64 =( GEOMETRIC_REPRESENTATION_CONTEXT ( 3 ) GLOBAL_UNCERTAINTY_ASSIGNED_CONTEXT ( ( #2 ) ) GLOBAL_UNIT_ASSIGNED_CONTEXT ( ( #8, #96, #27 ) ) REPRESENTATION_CONTEXT ( 'NONE', 'WORKASPACE' ) );
#65 = SURFACE_STYLE_FILL_AREA ( #104 ) ;
#66 = DIRECTION ( 'NONE',  ( -0.0000000000000000000, -3.849149151066323200E-020, 1.000000000000000000 ) ) ;
#67 = EDGE_LOOP ( 'NONE', ( #59, #50, #35, #187 ) ) ;
#68 = ORIENTED_EDGE ( 'NONE', *, *, #46, .F. ) ;
#69 = AXIS2_PLACEMENT_3D ( 'NONE', #97, #10, #32 ) ;
#70 = FACE_OUTER_BOUND ( 'NONE', #193, .T. ) ;
#71 = ORIENTED_EDGE ( 'NONE', *, *, #41, .T. ) ;
#72 = EDGE_CURVE ( 'NONE', #210, #158, #189, .T. ) ;
#73 = DIRECTION ( 'NONE',  ( 0.0000000000000000000, -1.000000000000000000, -3.849149151066322600E-020 ) ) ;
#74 = CARTESIAN_POINT ( 'NONE',  ( 0.0000000000000000000, 1.686559999999996700, 1.291143634268433200E-016 ) ) ;
#75 = CIRCLE ( 'NONE', #89, 2.108200000000005000 ) ;
#76 =( NAMED_UNIT ( * ) PLANE_ANGLE_UNIT ( ) SI_UNIT ( $, .RADIAN. ) );
#77 = AXIS2_PLACEMENT_3D ( 'NONE', #151, #106, #126 ) ;
#78 = FACE_OUTER_BOUND ( 'NONE', #117, .T. ) ;
#79 =( LENGTH_UNIT ( ) NAMED_UNIT ( * ) SI_UNIT ( .MILLI., .METRE. ) );
#80 = CONICAL_SURFACE ( 'NONE', #14, 2414.213562373055100, 1.178097245096166600 ) ;
#81 = DIRECTION ( 'NONE',  ( 8.659560562354942700E-017, -0.7071067811865483500, -0.7071067811865468000 ) ) ;
#82 = EDGE_CURVE ( 'NONE', #40, #158, #85, .T. ) ;
#83 = PRODUCT_CONTEXT ( 'NONE', #98, 'mechanical' ) ;
#84 = UNCERTAINTY_MEASURE_WITH_UNIT (LENGTH_MEASURE( 1.000000000000000100E-005 ), #171, 'distance_accuracy_value', 'NONE');
#85 = CIRCLE ( 'NONE', #192, 2.108200000000005000 ) ;
#86 = ADVANCED_FACE ( 'NONE', ( #70 ), #134, .F. ) ;
#87 = CONICAL_SURFACE ( 'NONE', #103, 1.686559999999996700, 0.7853981633974492800 ) ;
#88 = FILL_AREA_STYLE_COLOUR ( '', #154 ) ;
#89 = AXIS2_PLACEMENT_3D ( 'NONE', #125, #184, #91 ) ;
#90 = DIRECTION ( 'NONE',  ( -0.0000000000000000000, -3.849149151066323200E-020, 1.000000000000000000 ) ) ;
#91 = DIRECTION ( 'NONE',  ( 0.0000000000000000000, 1.000000000000000000, 0.0000000000000000000 ) ) ;
#92 =( NAMED_UNIT ( * ) SI_UNIT ( $, .STERADIAN. ) SOLID_ANGLE_UNIT ( ) );
#93 = EDGE_CURVE ( 'NONE', #211, #160, #144, .T. ) ;
#94 = PRESENTATION_STYLE_ASSIGNMENT (( #37 ) ) ;
#95 = CARTESIAN_POINT ( 'NONE',  ( 2.581800381962456600E-016, 2.108200000000005000, 8.114776240278040900E-020 ) ) ;
#96 =( NAMED_UNIT ( * ) PLANE_ANGLE_UNIT ( ) SI_UNIT ( $, .RADIAN. ) );
#97 = CARTESIAN_POINT ( 'NONE',  ( 0.0000000000000000000, 0.0000000000000000000, 0.0000000000000000000 ) ) ;
#98 = APPLICATION_CONTEXT ( 'automotive_design' ) ;
#99 = VECTOR ( 'NONE', #111, 1000.000000000000000 ) ;
#100 = ORIENTED_EDGE ( 'NONE', *, *, #7, .F. ) ;
#101 = MANIFOLD_SOLID_BREP ( '¸ðµû±â1', #24 ) ;
#102 = PRODUCT_DEFINITION_FORMATION_WITH_SPECIFIED_SOURCE ( 'ANY', '', #197, .NOT_KNOWN. ) ;
#103 = AXIS2_PLACEMENT_3D ( 'NONE', #55, #172, #153 ) ;
#104 = FILL_AREA_STYLE ('',( #88 ) ) ;
#105 = STYLED_ITEM ( 'NONE', ( #161 ), #181 ) ;
#106 = DIRECTION ( 'NONE',  ( -0.0000000000000000000, -3.849149151066323200E-020, 1.000000000000000000 ) ) ;
#107 = DIRECTION ( 'NONE',  ( 0.0000000000000000000, 3.849149151066323200E-020, -1.000000000000000000 ) ) ;
#108 = CARTESIAN_POINT ( 'NONE',  ( 0.0000000000000000000, -3.528040638271451800E-017, 916.5767549678049600 ) ) ;
#109 = ORIENTED_EDGE ( 'NONE', *, *, #72, .F. ) ;
#110 = MECHANICAL_DESIGN_GEOMETRIC_PRESENTATION_REPRESENTATION (  '', ( #105 ), #12 ) ;
#111 = DIRECTION ( 'NONE',  ( -0.0000000000000000000, -3.849149151066323200E-020, 1.000000000000000000 ) ) ;
#112 = CYLINDRICAL_SURFACE ( 'NONE', #118, 2.108200000000005000 ) ;
#113 = CARTESIAN_POINT ( 'NONE',  ( 2.581800381962456600E-016, 2.108200000000005000, -0.4216400000000072900 ) ) ;
#114 = ORIENTED_EDGE ( 'NONE', *, *, #46, .T. ) ;
#115 = PRODUCT_DEFINITION_SHAPE ( 'NONE', 'NONE',  #34 ) ;
#116 = PRODUCT_RELATED_PRODUCT_CATEGORY ( 'part', '', ( #197 ) ) ;
#117 = EDGE_LOOP ( 'NONE', ( #114, #182, #146, #157 ) ) ;
#118 = AXIS2_PLACEMENT_3D ( 'NONE', #123, #20, #152 ) ;
#119 = VECTOR ( 'NONE', #58, 1000.000000000000000 ) ;
#120 = ADVANCED_FACE ( 'NONE', ( #49 ), #80, .T. ) ;
#121 = EDGE_CURVE ( 'NONE', #122, #40, #131, .T. ) ;
#122 = VERTEX_POINT ( 'NONE', #175 ) ;
#123 = CARTESIAN_POINT ( 'NONE',  ( 0.0000000000000000000, 0.0000000000000000000, 0.0000000000000000000 ) ) ;
#124 = CYLINDRICAL_SURFACE ( 'NONE', #127, 2.108200000000005000 ) ;
#125 = CARTESIAN_POINT ( 'NONE',  ( 0.0000000000000000000, 1.622955248055632700E-020, -0.4216400000000072900 ) ) ;
#126 = DIRECTION ( 'NONE',  ( 0.0000000000000000000, -1.000000000000000000, 0.0000000000000000000 ) ) ;
#127 = AXIS2_PLACEMENT_3D ( 'NONE', #52, #53, #73 ) ;
#128 = FACE_OUTER_BOUND ( 'NONE', #67, .T. ) ;
#129 = DIRECTION ( 'NONE',  ( 0.0000000000000000000, 1.000000000000000000, 3.849149151066398500E-020 ) ) ;
#130 = AXIS2_PLACEMENT_3D ( 'NONE', #36, #167, #166 ) ;
#131 = LINE ( 'NONE', #9, #56 ) ;
#132 = CONICAL_SURFACE ( 'NONE', #145, 2414.213562373055100, 1.178097245096166600 ) ;
#133 = EDGE_CURVE ( 'NONE', #160, #40, #5, .T. ) ;
#134 = PLANE ( 'NONE',  #176 ) ;
#135 = DIRECTION ( 'NONE',  ( 0.0000000000000000000, -1.000000000000000000, 0.0000000000000000000 ) ) ;
#136 = CARTESIAN_POINT ( 'NONE',  ( 0.0000000000000000000, 3.211085127948711500E-018, -83.42324503219497000 ) ) ;
#137 = ORIENTED_EDGE ( 'NONE', *, *, #162, .T. ) ;
#138 = AXIS2_PLACEMENT_3D ( 'NONE', #201, #4, #135 ) ;
#139 = UNCERTAINTY_MEASURE_WITH_UNIT (LENGTH_MEASURE( 1.000000000000000100E-005 ), #79, 'distance_accuracy_value', 'NONE');
#140 = CARTESIAN_POINT ( 'NONE',  ( 0.0000000000000000000, 1.686559999999996700, 1.291143634268433200E-016 ) ) ;
#141 = FILL_AREA_STYLE_COLOUR ( '', #43 ) ;
#142 = ORIENTED_EDGE ( 'NONE', *, *, #60, .F. ) ;
#143 = EDGE_LOOP ( 'NONE', ( #6, #196, #22, #16 ) ) ;
#144 = CIRCLE ( 'NONE', #138, 2.108200000000009800 ) ;
#145 = AXIS2_PLACEMENT_3D ( 'NONE', #108, #90, #38 ) ;
#146 = ORIENTED_EDGE ( 'NONE', *, *, #60, .T. ) ;
#147 = EDGE_LOOP ( 'NONE', ( #206, #180, #142, #109 ) ) ;
#148 = CARTESIAN_POINT ( 'NONE',  ( 0.0000000000000000000, -2.108200000000005000, -0.4216400000000072900 ) ) ;
#149 =( NAMED_UNIT ( * ) SI_UNIT ( $, .STERADIAN. ) SOLID_ANGLE_UNIT ( ) );
#150 = CARTESIAN_POINT ( 'NONE',  ( 0.0000000000000000000, 3.211085127948711500E-018, -83.42324503219497000 ) ) ;
#151 = CARTESIAN_POINT ( 'NONE',  ( 0.0000000000000000000, 3.177472624205249900E-018, -82.54999999999999700 ) ) ;
#152 = DIRECTION ( 'NONE',  ( 0.0000000000000000000, -1.000000000000000000, -3.849149151066322600E-020 ) ) ;
#153 = DIRECTION ( 'NONE',  ( 0.0000000000000000000, 1.000000000000000000, 3.849149151066398500E-020 ) ) ;
#154 = COLOUR_RGB ( '',0.7921568627450980000, 0.8196078431372548800, 0.9333333333333333500 ) ;
#155 = CARTESIAN_POINT ( 'NONE',  ( 0.0000000000000000000, 1.622955248055632700E-020, -0.4216400000000072900 ) ) ;
#156 = PRESENTATION_LAYER_ASSIGNMENT (  '', '', ( #105 ) ) ;
#157 = ORIENTED_EDGE ( 'NONE', *, *, #133, .F. ) ;
#158 = VERTEX_POINT ( 'NONE', #113 ) ;
#159 = EDGE_CURVE ( 'NONE', #211, #158, #186, .T. ) ;
#160 = VERTEX_POINT ( 'NONE', #190 ) ;
#161 = PRESENTATION_STYLE_ASSIGNMENT (( #178 ) ) ;
#162 = EDGE_CURVE ( 'NONE', #122, #210, #61, .T. ) ;
#163 = VECTOR ( 'NONE', #168, 1000.000000000000000 ) ;
#164 = STYLED_ITEM ( 'NONE', ( #94 ), #101 ) ;
#165 = ORIENTED_EDGE ( 'NONE', *, *, #7, .T. ) ;
#166 = DIRECTION ( 'NONE',  ( 0.0000000000000000000, 1.000000000000000000, 3.849149151066398500E-020 ) ) ;
#167 = DIRECTION ( 'NONE',  ( -0.0000000000000000000, -3.849149151066323200E-020, 1.000000000000000000 ) ) ;
#168 = DIRECTION ( 'NONE',  ( 1.131426112287697500E-016, 0.9238795325112845200, 0.3826834323650951700 ) ) ;
#169 = CIRCLE ( 'NONE', #130, 1.686559999999996700 ) ;
#170 = DIRECTION ( 'NONE',  ( -0.0000000000000000000, -3.849149151066323200E-020, 1.000000000000000000 ) ) ;
#171 =( LENGTH_UNIT ( ) NAMED_UNIT ( * ) SI_UNIT ( .MILLI., .METRE. ) );
#172 = DIRECTION ( 'NONE',  ( 0.0000000000000000000, 3.849149151066323800E-020, -1.000000000000000000 ) ) ;
#173 = SHAPE_DEFINITION_REPRESENTATION ( #115, #181 ) ;
#174 = LINE ( 'NONE', #150, #119 ) ;
#175 = CARTESIAN_POINT ( 'NONE',  ( 2.323620343766205400E-016, -1.686559999999996700, 1.289845270069988600E-016 ) ) ;
#176 = AXIS2_PLACEMENT_3D ( 'NONE', #57, #107, #17 ) ;
#177 = DIRECTION ( 'NONE',  ( 0.0000000000000000000, 3.849149151066323800E-020, -1.000000000000000000 ) ) ;
#178 = SURFACE_STYLE_USAGE ( .BOTH. , #25 ) ;
#179 = VECTOR ( 'NONE', #208, 1000.000000000000000 ) ;
#180 = ORIENTED_EDGE ( 'NONE', *, *, #121, .T. ) ;
#181 = ADVANCED_BREP_SHAPE_REPRESENTATION ( '03-0302', ( #101, #69 ), #64 ) ;
#182 = ORIENTED_EDGE ( 'NONE', *, *, #159, .T. ) ;
#183 = EDGE_LOOP ( 'NONE', ( #100, #21, #68 ) ) ;
#184 = DIRECTION ( 'NONE',  ( 0.0000000000000000000, 3.849149151066323800E-020, -1.000000000000000000 ) ) ;
#185 = PRESENTATION_LAYER_ASSIGNMENT (  '', '', ( #164 ) ) ;
#186 = LINE ( 'NONE', #95, #179 ) ;
#187 = ORIENTED_EDGE ( 'NONE', *, *, #82, .T. ) ;
#188 = CARTESIAN_POINT ( 'NONE',  ( 0.0000000000000000000, -2.108200000000005000, -8.114776240278040900E-020 ) ) ;
#189 = LINE ( 'NONE', #74, #195 ) ;
#190 = CARTESIAN_POINT ( 'NONE',  ( 0.0000000000000000000, -2.108200000000010300, -82.54999999999999700 ) ) ;
#191 = CARTESIAN_POINT ( 'NONE',  ( 0.0000000000000000000, 3.211085127948711500E-018, -83.42324503219497000 ) ) ;
#192 = AXIS2_PLACEMENT_3D ( 'NONE', #155, #18, #1 ) ;
#193 = EDGE_LOOP ( 'NONE', ( #71, #137 ) ) ;
#194 =( GEOMETRIC_REPRESENTATION_CONTEXT ( 3 ) GLOBAL_UNCERTAINTY_ASSIGNED_CONTEXT ( ( #84 ) ) GLOBAL_UNIT_ASSIGNED_CONTEXT ( ( #171, #76, #92 ) ) REPRESENTATION_CONTEXT ( 'NONE', 'WORKASPACE' ) );
#195 = VECTOR ( 'NONE', #39, 1000.000000000000000 ) ;
#196 = ORIENTED_EDGE ( 'NONE', *, *, #41, .F. ) ;
#197 = PRODUCT ( '03-0302', '03-0302', '', ( #83 ) ) ;
#198 = CARTESIAN_POINT ( 'NONE',  ( 0.0000000000000000000, -3.528040638271451800E-017, 916.5767549678049600 ) ) ;
#199 = DIRECTION ( 'NONE',  ( 0.0000000000000000000, -1.000000000000000000, 0.0000000000000000000 ) ) ;
#200 = FACE_OUTER_BOUND ( 'NONE', #183, .T. ) ;
#201 = CARTESIAN_POINT ( 'NONE',  ( 0.0000000000000000000, 3.177472624205249900E-018, -82.54999999999999700 ) ) ;
#202 = FACE_OUTER_BOUND ( 'NONE', #143, .T. ) ;
#203 = MECHANICAL_DESIGN_GEOMETRIC_PRESENTATION_REPRESENTATION (  '', ( #164 ), #194 ) ;
#204 = PRODUCT_DEFINITION_CONTEXT ( 'detailed design', #29, 'design' ) ;
#205 = DIRECTION ( 'NONE',  ( 0.0000000000000000000, 1.000000000000000000, 3.849149151066398500E-020 ) ) ;
#206 = ORIENTED_EDGE ( 'NONE', *, *, #162, .F. ) ;
#207 =( NAMED_UNIT ( * ) PLANE_ANGLE_UNIT ( ) SI_UNIT ( $, .RADIAN. ) );
#208 = DIRECTION ( 'NONE',  ( -0.0000000000000000000, -3.849149151066323200E-020, 1.000000000000000000 ) ) ;
#209 = SURFACE_STYLE_FILL_AREA ( #45 ) ;
#210 = VERTEX_POINT ( 'NONE', #140 ) ;
#211 = VERTEX_POINT ( 'NONE', #63 ) ;
#212 = ADVANCED_FACE ( 'NONE', ( #202 ), #213, .T. ) ;
#213 = CONICAL_SURFACE ( 'NONE', #47, 1.686559999999996700, 0.7853981633974492800 ) ;
#214 = VERTEX_POINT ( 'NONE', #191 ) ;
ENDSEC;
END-ISO-10303-21;
