ISO-10303-21;
HEADER;
FILE_DESCRIPTION (( 'STEP AP214' ),
    '1' );
FILE_NAME ('03-0303.STEP',
    '2020-07-23T06:31:30',
    ( '' ),
    ( '' ),
    'SwSTEP 2.0',
    'SolidWorks 2014',
    '' );
FILE_SCHEMA (( 'AUTOMOTIVE_DESIGN' ));
ENDSEC;

DATA;
#1 = DIRECTION ( 'NONE',  ( 0.0000000000000000000, 1.000000000000000000, 0.0000000000000000000 ) ) ;
#2 = ORIENTED_EDGE ( 'NONE', *, *, #16, .F. ) ;
#3 = DIRECTION ( 'NONE',  ( -0.0000000000000000000, 6.131332308267184200E-020, 1.000000000000000000 ) ) ;
#4 = ORIENTED_EDGE ( 'NONE', *, *, #87, .F. ) ;
#5 = FACE_OUTER_BOUND ( 'NONE', #79, .T. ) ;
#6 = PRODUCT_DEFINITION ( 'UNKNOWN', '', #129, #161 ) ;
#7 = LINE ( 'NONE', #150, #141 ) ;
#8 = CIRCLE ( 'NONE', #46, 2.044700000000004600 ) ;
#9 = DIRECTION ( 'NONE',  ( 0.0000000000000000000, -6.131332308267185400E-020, -1.000000000000000000 ) ) ;
#10 = MECHANICAL_DESIGN_GEOMETRIC_PRESENTATION_REPRESENTATION (  '', ( #96 ), #89 ) ;
#11 = UNCERTAINTY_MEASURE_WITH_UNIT (LENGTH_MEASURE( 1.000000000000000100E-005 ), #200, 'distance_accuracy_value', 'NONE');
#12 = CONICAL_SURFACE ( 'NONE', #182, 2414.213562373062800, 1.178097245096167800 ) ;
#13 = CYLINDRICAL_SURFACE ( 'NONE', #94, 2.044700000000004600 ) ;
#14 = PRESENTATION_LAYER_ASSIGNMENT (  '', '', ( #96 ) ) ;
#15 = FACE_OUTER_BOUND ( 'NONE', #28, .T. ) ;
#16 = EDGE_CURVE ( 'NONE', #69, #49, #181, .T. ) ;
#17 = CARTESIAN_POINT ( 'NONE',  ( 0.0000000000000000000, -2.507347034142761000E-020, -0.4089399999999965300 ) ) ;
#18 = CARTESIAN_POINT ( 'NONE',  ( 0.0000000000000000000, 7.680379643756042200E-036, 1.252644491866832500E-016 ) ) ;
#19 = CARTESIAN_POINT ( 'NONE',  ( 2.504035310216605000E-016, 2.044700000000009500, -82.54999999999999700 ) ) ;
#20 = ORIENTED_EDGE ( 'NONE', *, *, #53, .F. ) ;
#21 = EDGE_LOOP ( 'NONE', ( #192, #43 ) ) ;
#22 = CONICAL_SURFACE ( 'NONE', #132, 1.635760000000007000, 0.7853981633974498300 ) ;
#23 = ORIENTED_EDGE ( 'NONE', *, *, #66, .T. ) ;
#24 = CARTESIAN_POINT ( 'NONE',  ( 0.0000000000000000000, 7.680379643756040900E-036, 1.252644491866832500E-016 ) ) ;
#25 = CARTESIAN_POINT ( 'NONE',  ( 2.003228248173282700E-016, -1.635760000000007000, 1.253647430680489600E-016 ) ) ;
#26 = DIRECTION ( 'NONE',  ( 0.0000000000000000000, -1.000000000000000000, 0.0000000000000000000 ) ) ;
#27 = PRESENTATION_STYLE_ASSIGNMENT (( #186 ) ) ;
#28 = EDGE_LOOP ( 'NONE', ( #86, #164, #119 ) ) ;
#29 = CONICAL_SURFACE ( 'NONE', #51, 1.635760000000007000, 0.7853981633974498300 ) ;
#30 = EDGE_CURVE ( 'NONE', #203, #45, #59, .T. ) ;
#31 = DIRECTION ( 'NONE',  ( 0.0000000000000000000, -6.131332308267184200E-020, -1.000000000000000000 ) ) ;
#32 = CARTESIAN_POINT ( 'NONE',  ( 0.0000000000000000000, -2.044700000000009500, -82.54999999999999700 ) ) ;
#33 = COLOUR_RGB ( '',0.7921568627450980000, 0.8196078431372548800, 0.9333333333333333500 ) ;
#34 = ADVANCED_FACE ( 'NONE', ( #41 ), #194, .F. ) ;
#35 = ORIENTED_EDGE ( 'NONE', *, *, #146, .T. ) ;
#36 = ADVANCED_FACE ( 'NONE', ( #169 ), #12, .T. ) ;
#37 = DIRECTION ( 'NONE',  ( -0.0000000000000000000, 6.131332308267184200E-020, 1.000000000000000000 ) ) ;
#38 = ORIENTED_EDGE ( 'NONE', *, *, #205, .T. ) ;
#39 = FACE_OUTER_BOUND ( 'NONE', #111, .T. ) ;
#40 = CARTESIAN_POINT ( 'NONE',  ( 0.0000000000000000000, 0.0000000000000000000, 0.0000000000000000000 ) ) ;
#41 = FACE_OUTER_BOUND ( 'NONE', #21, .T. ) ;
#42 = CARTESIAN_POINT ( 'NONE',  ( 0.0000000000000000000, -2.507347034142761000E-020, -0.4089399999999965300 ) ) ;
#43 = ORIENTED_EDGE ( 'NONE', *, *, #80, .T. ) ;
#44 = CARTESIAN_POINT ( 'NONE',  ( 2.504035310216599100E-016, 2.044700000000004600, -0.4089399999999965300 ) ) ;
#45 = VERTEX_POINT ( 'NONE', #142 ) ;
#46 = AXIS2_PLACEMENT_3D ( 'NONE', #17, #77, #58 ) ;
#47 = ADVANCED_FACE ( 'NONE', ( #15 ), #103, .T. ) ;
#48 = APPLICATION_PROTOCOL_DEFINITION ( 'draft international standard', 'automotive_design', 1998, #154 ) ;
#49 = VERTEX_POINT ( 'NONE', #19 ) ;
#50 = FILL_AREA_STYLE ('',( #153 ) ) ;
#51 = AXIS2_PLACEMENT_3D ( 'NONE', #24, #9, #212 ) ;
#52 = PRODUCT_CONTEXT ( 'NONE', #154, 'mechanical' ) ;
#53 = EDGE_CURVE ( 'NONE', #45, #203, #8, .T. ) ;
#54 = EDGE_CURVE ( 'NONE', #49, #203, #92, .T. ) ;
#55 = VECTOR ( 'NONE', #148, 999.9999999999998900 ) ;
#56 = DIRECTION ( 'NONE',  ( 0.0000000000000000000, -1.000000000000000000, 0.0000000000000000000 ) ) ;
#57 = DIRECTION ( 'NONE',  ( 0.0000000000000000000, -1.000000000000000000, 0.0000000000000000000 ) ) ;
#58 = DIRECTION ( 'NONE',  ( 0.0000000000000000000, 1.000000000000000000, 0.0000000000000000000 ) ) ;
#59 = CIRCLE ( 'NONE', #196, 2.044700000000004600 ) ;
#60 = CARTESIAN_POINT ( 'NONE',  ( 0.0000000000000000000, -5.113343677830456300E-018, -83.39694247098428500 ) ) ;
#61 = FACE_OUTER_BOUND ( 'NONE', #209, .T. ) ;
#62 = LINE ( 'NONE', #25, #55 ) ;
#63 = PRODUCT_DEFINITION_SHAPE ( 'NONE', 'NONE',  #6 ) ;
#64 = DIRECTION ( 'NONE',  ( 0.0000000000000000000, 0.7071067811865487900, -0.7071067811865463500 ) ) ;
#65 = CARTESIAN_POINT ( 'NONE',  ( 2.253631779194940900E-016, -1.635760000000007000, 1.253647430680489600E-016 ) ) ;
#66 = EDGE_CURVE ( 'NONE', #69, #125, #151, .T. ) ;
#67 = CIRCLE ( 'NONE', #195, 1.635760000000007000 ) ;
#68 = AXIS2_PLACEMENT_3D ( 'NONE', #211, #166, #82 ) ;
#69 = VERTEX_POINT ( 'NONE', #91 ) ;
#70 = VECTOR ( 'NONE', #128, 1000.000000000000000 ) ;
#71 = DIRECTION ( 'NONE',  ( 1.000000000000000000, 0.0000000000000000000, 0.0000000000000000000 ) ) ;
#72 = CLOSED_SHELL ( 'NONE', ( #202, #116, #47, #34, #36, #137, #88 ) ) ;
#73 = CIRCLE ( 'NONE', #68, 2.044700000000009500 ) ;
#74 = SHAPE_DEFINITION_REPRESENTATION ( #63, #143 ) ;
#75 = CARTESIAN_POINT ( 'NONE',  ( 2.504035310216599100E-016, 2.044700000000004600, -1.253673517071394000E-019 ) ) ;
#76 = ORIENTED_EDGE ( 'NONE', *, *, #30, .T. ) ;
#77 = DIRECTION ( 'NONE',  ( 0.0000000000000000000, -6.131332308267185400E-020, -1.000000000000000000 ) ) ;
#78 = DIRECTION ( 'NONE',  ( 0.0000000000000000000, -1.000000000000000000, 6.131332308267184200E-020 ) ) ;
#79 = EDGE_LOOP ( 'NONE', ( #210, #201, #149, #122 ) ) ;
#80 = EDGE_CURVE ( 'NONE', #185, #107, #171, .T. ) ;
#81 = DIRECTION ( 'NONE',  ( 0.0000000000000000000, -1.000000000000000000, 6.131332308267184200E-020 ) ) ;
#82 = DIRECTION ( 'NONE',  ( 0.0000000000000000000, -1.000000000000000000, 0.0000000000000000000 ) ) ;
#83 =( NAMED_UNIT ( * ) SI_UNIT ( $, .STERADIAN. ) SOLID_ANGLE_UNIT ( ) );
#84 = ORIENTED_EDGE ( 'NONE', *, *, #54, .F. ) ;
#85 = PRESENTATION_STYLE_ASSIGNMENT (( #188 ) ) ;
#86 = ORIENTED_EDGE ( 'NONE', *, *, #66, .F. ) ;
#87 = EDGE_CURVE ( 'NONE', #107, #185, #67, .T. ) ;
#88 = ADVANCED_FACE ( 'NONE', ( #61 ), #22, .T. ) ;
#89 =( GEOMETRIC_REPRESENTATION_CONTEXT ( 3 ) GLOBAL_UNCERTAINTY_ASSIGNED_CONTEXT ( ( #11 ) ) GLOBAL_UNIT_ASSIGNED_CONTEXT ( ( #200, #213, #83 ) ) REPRESENTATION_CONTEXT ( 'NONE', 'WORKASPACE' ) );
#90 = CARTESIAN_POINT ( 'NONE',  ( 0.0000000000000000000, 7.680379643756042200E-036, 1.252644491866832500E-016 ) ) ;
#91 = CARTESIAN_POINT ( 'NONE',  ( 0.0000000000000000000, -5.113343677830456300E-018, -83.39694247098428500 ) ) ;
#92 = LINE ( 'NONE', #75, #168 ) ;
#93 = CARTESIAN_POINT ( 'NONE',  ( 0.0000000000000000000, 5.619997940484138500E-017, 916.6030575290157000 ) ) ;
#94 = AXIS2_PLACEMENT_3D ( 'NONE', #113, #112, #81 ) ;
#95 = FILL_AREA_STYLE ('',( #110 ) ) ;
#96 = STYLED_ITEM ( 'NONE', ( #27 ), #198 ) ;
#97 = ORIENTED_EDGE ( 'NONE', *, *, #53, .T. ) ;
#98 = AXIS2_PLACEMENT_3D ( 'NONE', #163, #31, #140 ) ;
#99 = APPLICATION_PROTOCOL_DEFINITION ( 'draft international standard', 'automotive_design', 1998, #102 ) ;
#100 = VECTOR ( 'NONE', #180, 1000.000000000000100 ) ;
#101 = DIRECTION ( 'NONE',  ( 0.0000000000000000000, 0.0000000000000000000, 1.000000000000000000 ) ) ;
#102 = APPLICATION_CONTEXT ( 'automotive_design' ) ;
#103 = CONICAL_SURFACE ( 'NONE', #117, 2414.213562373062800, 1.178097245096167800 ) ;
#104 = CARTESIAN_POINT ( 'NONE',  ( 0.0000000000000000000, 5.619997940484138500E-017, 916.6030575290157000 ) ) ;
#105 = CARTESIAN_POINT ( 'NONE',  ( 0.0000000000000000000, 7.680379643756040900E-036, 1.252644491866832500E-016 ) ) ;
#106 = CARTESIAN_POINT ( 'NONE',  ( 0.0000000000000000000, 1.635760000000007000, 1.251641553053175300E-016 ) ) ;
#107 = VERTEX_POINT ( 'NONE', #106 ) ;
#108 =( NAMED_UNIT ( * ) SI_UNIT ( $, .STERADIAN. ) SOLID_ANGLE_UNIT ( ) );
#109 = AXIS2_PLACEMENT_3D ( 'NONE', #90, #208, #178 ) ;
#110 = FILL_AREA_STYLE_COLOUR ( '', #33 ) ;
#111 = EDGE_LOOP ( 'NONE', ( #84, #35, #38, #97 ) ) ;
#112 = DIRECTION ( 'NONE',  ( -0.0000000000000000000, 6.131332308267184200E-020, 1.000000000000000000 ) ) ;
#113 = CARTESIAN_POINT ( 'NONE',  ( 0.0000000000000000000, 0.0000000000000000000, 0.0000000000000000000 ) ) ;
#114 = PRESENTATION_LAYER_ASSIGNMENT (  '', '', ( #167 ) ) ;
#115 = CIRCLE ( 'NONE', #207, 2.044700000000009500 ) ;
#116 = ADVANCED_FACE ( 'NONE', ( #157 ), #152, .T. ) ;
#117 = AXIS2_PLACEMENT_3D ( 'NONE', #93, #121, #56 ) ;
#118 = SURFACE_STYLE_FILL_AREA ( #95 ) ;
#119 = ORIENTED_EDGE ( 'NONE', *, *, #126, .F. ) ;
#120 =( GEOMETRIC_REPRESENTATION_CONTEXT ( 3 ) GLOBAL_UNCERTAINTY_ASSIGNED_CONTEXT ( ( #159 ) ) GLOBAL_UNIT_ASSIGNED_CONTEXT ( ( #138, #136, #189 ) ) REPRESENTATION_CONTEXT ( 'NONE', 'WORKASPACE' ) );
#121 = DIRECTION ( 'NONE',  ( -0.0000000000000000000, 6.131332308267184200E-020, 1.000000000000000000 ) ) ;
#122 = ORIENTED_EDGE ( 'NONE', *, *, #172, .F. ) ;
#123 = DIRECTION ( 'NONE',  ( 0.0000000000000000000, 1.000000000000000000, -6.131332308267776400E-020 ) ) ;
#124 = DIRECTION ( 'NONE',  ( 0.0000000000000000000, -6.131332308267185400E-020, -1.000000000000000000 ) ) ;
#125 = VERTEX_POINT ( 'NONE', #32 ) ;
#126 = EDGE_CURVE ( 'NONE', #125, #49, #115, .T. ) ;
#127 = CARTESIAN_POINT ( 'NONE',  ( 0.0000000000000000000, -2.044700000000004600, 1.253673517071394000E-019 ) ) ;
#128 = DIRECTION ( 'NONE',  ( -0.0000000000000000000, 6.131332308267184200E-020, 1.000000000000000000 ) ) ;
#129 = PRODUCT_DEFINITION_FORMATION_WITH_SPECIFIED_SOURCE ( 'ANY', '', #147, .NOT_KNOWN. ) ;
#130 = ORIENTED_EDGE ( 'NONE', *, *, #146, .F. ) ;
#131 = COLOUR_RGB ( '',0.7921568627450980000, 0.8196078431372548800, 0.9333333333333333500 ) ;
#132 = AXIS2_PLACEMENT_3D ( 'NONE', #105, #176, #123 ) ;
#133 = PRODUCT_RELATED_PRODUCT_CATEGORY ( 'part', '', ( #147 ) ) ;
#134 = ORIENTED_EDGE ( 'NONE', *, *, #54, .T. ) ;
#135 = CARTESIAN_POINT ( 'NONE',  ( 0.0000000000000000000, 0.0000000000000000000, 0.0000000000000000000 ) ) ;
#136 =( NAMED_UNIT ( * ) PLANE_ANGLE_UNIT ( ) SI_UNIT ( $, .RADIAN. ) );
#137 = ADVANCED_FACE ( 'NONE', ( #39 ), #13, .T. ) ;
#138 =( LENGTH_UNIT ( ) NAMED_UNIT ( * ) SI_UNIT ( .MILLI., .METRE. ) );
#139 = ORIENTED_EDGE ( 'NONE', *, *, #205, .F. ) ;
#140 = DIRECTION ( 'NONE',  ( 0.0000000000000000000, 1.000000000000000000, -6.131332308267184200E-020 ) ) ;
#141 = VECTOR ( 'NONE', #64, 999.9999999999998900 ) ;
#142 = CARTESIAN_POINT ( 'NONE',  ( 0.0000000000000000000, -2.044700000000004600, -0.4089399999999965300 ) ) ;
#143 = ADVANCED_BREP_SHAPE_REPRESENTATION ( '03-0303', ( #198, #158 ), #206 ) ;
#144 =( NAMED_UNIT ( * ) PLANE_ANGLE_UNIT ( ) SI_UNIT ( $, .RADIAN. ) );
#145 = ORIENTED_EDGE ( 'NONE', *, *, #126, .T. ) ;
#146 = EDGE_CURVE ( 'NONE', #49, #125, #73, .T. ) ;
#147 = PRODUCT ( '03-0303', '03-0303', '', ( #52 ) ) ;
#148 = DIRECTION ( 'NONE',  ( 8.659560562354946400E-017, -0.7071067811865487900, -0.7071067811865463500 ) ) ;
#149 = ORIENTED_EDGE ( 'NONE', *, *, #30, .F. ) ;
#150 = CARTESIAN_POINT ( 'NONE',  ( 0.0000000000000000000, 1.635760000000007000, 1.251641553053175300E-016 ) ) ;
#151 = LINE ( 'NONE', #174, #197 ) ;
#152 = CYLINDRICAL_SURFACE ( 'NONE', #179, 2.044700000000004600 ) ;
#153 = FILL_AREA_STYLE_COLOUR ( '', #131 ) ;
#154 = APPLICATION_CONTEXT ( 'automotive_design' ) ;
#155 = EDGE_LOOP ( 'NONE', ( #145, #134, #76, #139 ) ) ;
#156 = EDGE_CURVE ( 'NONE', #185, #45, #62, .T. ) ;
#157 = FACE_OUTER_BOUND ( 'NONE', #155, .T. ) ;
#158 = AXIS2_PLACEMENT_3D ( 'NONE', #135, #101, #71 ) ;
#159 = UNCERTAINTY_MEASURE_WITH_UNIT (LENGTH_MEASURE( 1.000000000000000100E-005 ), #138, 'distance_accuracy_value', 'NONE');
#160 = DIRECTION ( 'NONE',  ( -0.0000000000000000000, 6.131332308267184200E-020, 1.000000000000000000 ) ) ;
#161 = PRODUCT_DEFINITION_CONTEXT ( 'detailed design', #102, 'design' ) ;
#162 = DIRECTION ( 'NONE',  ( 0.0000000000000000000, -0.9238795325112848500, 0.3826834323650940600 ) ) ;
#163 = CARTESIAN_POINT ( 'NONE',  ( 0.0000000000000000000, 2.044700000000000200, 1.251390818349761200E-016 ) ) ;
#164 = ORIENTED_EDGE ( 'NONE', *, *, #16, .T. ) ;
#165 = ORIENTED_EDGE ( 'NONE', *, *, #156, .F. ) ;
#166 = DIRECTION ( 'NONE',  ( -0.0000000000000000000, 6.131332308267184200E-020, 1.000000000000000000 ) ) ;
#167 = STYLED_ITEM ( 'NONE', ( #85 ), #143 ) ;
#168 = VECTOR ( 'NONE', #160, 1000.000000000000000 ) ;
#169 = FACE_OUTER_BOUND ( 'NONE', #214, .T. ) ;
#170 =( LENGTH_UNIT ( ) NAMED_UNIT ( * ) SI_UNIT ( .MILLI., .METRE. ) );
#171 = CIRCLE ( 'NONE', #109, 1.635760000000007000 ) ;
#172 = EDGE_CURVE ( 'NONE', #107, #203, #7, .T. ) ;
#173 = UNCERTAINTY_MEASURE_WITH_UNIT (LENGTH_MEASURE( 1.000000000000000100E-005 ), #170, 'distance_accuracy_value', 'NONE');
#174 = CARTESIAN_POINT ( 'NONE',  ( 0.0000000000000000000, -5.113343677830456300E-018, -83.39694247098428500 ) ) ;
#175 = ORIENTED_EDGE ( 'NONE', *, *, #172, .T. ) ;
#176 = DIRECTION ( 'NONE',  ( 0.0000000000000000000, -6.131332308267185400E-020, -1.000000000000000000 ) ) ;
#177 = LINE ( 'NONE', #127, #70 ) ;
#178 = DIRECTION ( 'NONE',  ( 0.0000000000000000000, 1.000000000000000000, -6.131332308267776400E-020 ) ) ;
#179 = AXIS2_PLACEMENT_3D ( 'NONE', #40, #37, #78 ) ;
#180 = DIRECTION ( 'NONE',  ( 1.131426112287698000E-016, 0.9238795325112848500, 0.3826834323650940600 ) ) ;
#181 = LINE ( 'NONE', #60, #100 ) ;
#182 = AXIS2_PLACEMENT_3D ( 'NONE', #104, #191, #57 ) ;
#183 = SURFACE_SIDE_STYLE ('',( #118 ) ) ;
#184 = CARTESIAN_POINT ( 'NONE',  ( 0.0000000000000000000, -5.061414820474560700E-018, -82.54999999999999700 ) ) ;
#185 = VERTEX_POINT ( 'NONE', #65 ) ;
#186 = SURFACE_STYLE_USAGE ( .BOTH. , #183 ) ;
#187 = MECHANICAL_DESIGN_GEOMETRIC_PRESENTATION_REPRESENTATION (  '', ( #167 ), #120 ) ;
#188 = SURFACE_STYLE_USAGE ( .BOTH. , #204 ) ;
#189 =( NAMED_UNIT ( * ) SI_UNIT ( $, .STERADIAN. ) SOLID_ANGLE_UNIT ( ) );
#190 = DIRECTION ( 'NONE',  ( 0.0000000000000000000, 1.000000000000000000, -6.131332308267776400E-020 ) ) ;
#191 = DIRECTION ( 'NONE',  ( -0.0000000000000000000, 6.131332308267184200E-020, 1.000000000000000000 ) ) ;
#192 = ORIENTED_EDGE ( 'NONE', *, *, #87, .T. ) ;
#193 = SURFACE_STYLE_FILL_AREA ( #50 ) ;
#194 = PLANE ( 'NONE',  #98 ) ;
#195 = AXIS2_PLACEMENT_3D ( 'NONE', #18, #3, #190 ) ;
#196 = AXIS2_PLACEMENT_3D ( 'NONE', #42, #124, #1 ) ;
#197 = VECTOR ( 'NONE', #162, 1000.000000000000100 ) ;
#198 = MANIFOLD_SOLID_BREP ( '¸ðµû±â1', #72 ) ;
#199 = DIRECTION ( 'NONE',  ( -0.0000000000000000000, 6.131332308267184200E-020, 1.000000000000000000 ) ) ;
#200 =( LENGTH_UNIT ( ) NAMED_UNIT ( * ) SI_UNIT ( .MILLI., .METRE. ) );
#201 = ORIENTED_EDGE ( 'NONE', *, *, #156, .T. ) ;
#202 = ADVANCED_FACE ( 'NONE', ( #5 ), #29, .T. ) ;
#203 = VERTEX_POINT ( 'NONE', #44 ) ;
#204 = SURFACE_SIDE_STYLE ('',( #193 ) ) ;
#205 = EDGE_CURVE ( 'NONE', #125, #45, #177, .T. ) ;
#206 =( GEOMETRIC_REPRESENTATION_CONTEXT ( 3 ) GLOBAL_UNCERTAINTY_ASSIGNED_CONTEXT ( ( #173 ) ) GLOBAL_UNIT_ASSIGNED_CONTEXT ( ( #170, #144, #108 ) ) REPRESENTATION_CONTEXT ( 'NONE', 'WORKASPACE' ) );
#207 = AXIS2_PLACEMENT_3D ( 'NONE', #184, #199, #26 ) ;
#208 = DIRECTION ( 'NONE',  ( -0.0000000000000000000, 6.131332308267184200E-020, 1.000000000000000000 ) ) ;
#209 = EDGE_LOOP ( 'NONE', ( #165, #4, #175, #20 ) ) ;
#210 = ORIENTED_EDGE ( 'NONE', *, *, #80, .F. ) ;
#211 = CARTESIAN_POINT ( 'NONE',  ( 0.0000000000000000000, -5.061414820474560700E-018, -82.54999999999999700 ) ) ;
#212 = DIRECTION ( 'NONE',  ( 0.0000000000000000000, 1.000000000000000000, -6.131332308267776400E-020 ) ) ;
#213 =( NAMED_UNIT ( * ) PLANE_ANGLE_UNIT ( ) SI_UNIT ( $, .RADIAN. ) );
#214 = EDGE_LOOP ( 'NONE', ( #2, #23, #130 ) ) ;
ENDSEC;
END-ISO-10303-21;
