ISO-10303-21;
HEADER;
FILE_DESCRIPTION (( 'STEP AP214' ),
    '1' );
FILE_NAME ('03-0304.STEP',
    '2020-07-23T06:32:11',
    ( '' ),
    ( '' ),
    'SwSTEP 2.0',
    'SolidWorks 2014',
    '' );
FILE_SCHEMA (( 'AUTOMOTIVE_DESIGN' ));
ENDSEC;

DATA;
#1 = ORIENTED_EDGE ( 'NONE', *, *, #64, .F. ) ;
#2 = CARTESIAN_POINT ( 'NONE',  ( 0.0000000000000000000, -8.087183482112001700E-019, -82.54999999999999700 ) ) ;
#3 = SURFACE_STYLE_FILL_AREA ( #6 ) ;
#4 = EDGE_CURVE ( 'NONE', #82, #43, #108, .T. ) ;
#5 = CARTESIAN_POINT ( 'NONE',  ( 0.0000000000000000000, -2.019300000000004300, 1.978249497932016800E-020 ) ) ;
#6 = FILL_AREA_STYLE ('',( #102 ) ) ;
#7 = EDGE_CURVE ( 'NONE', #138, #43, #45, .T. ) ;
#8 = CIRCLE ( 'NONE', #23, 2.019300000000004300 ) ;
#9 = AXIS2_PLACEMENT_3D ( 'NONE', #184, #39, #52 ) ;
#10 = ORIENTED_EDGE ( 'NONE', *, *, #199, .F. ) ;
#11 = FACE_OUTER_BOUND ( 'NONE', #91, .T. ) ;
#12 =( LENGTH_UNIT ( ) NAMED_UNIT ( * ) SI_UNIT ( .MILLI., .METRE. ) );
#13 = SURFACE_SIDE_STYLE ('',( #125 ) ) ;
#14 = ORIENTED_EDGE ( 'NONE', *, *, #19, .T. ) ;
#15 = DIRECTION ( 'NONE',  ( -0.0000000000000000000, 9.796709245441552300E-021, 1.000000000000000000 ) ) ;
#16 = APPLICATION_PROTOCOL_DEFINITION ( 'draft international standard', 'automotive_design', 1998, #145 ) ;
#17 = LINE ( 'NONE', #71, #172 ) ;
#18 = FACE_OUTER_BOUND ( 'NONE', #73, .T. ) ;
#19 = EDGE_CURVE ( 'NONE', #43, #82, #156, .T. ) ;
#20 = PRODUCT ( '03-0304', '03-0304', '', ( #130 ) ) ;
#21 = DIRECTION ( 'NONE',  ( -0.0000000000000000000, 9.796709245441552300E-021, 1.000000000000000000 ) ) ;
#22 = ORIENTED_EDGE ( 'NONE', *, *, #199, .T. ) ;
#23 = AXIS2_PLACEMENT_3D ( 'NONE', #124, #181, #42 ) ;
#24 = ADVANCED_FACE ( 'NONE', ( #70 ), #131, .F. ) ;
#25 = ORIENTED_EDGE ( 'NONE', *, *, #162, .T. ) ;
#26 = VECTOR ( 'NONE', #144, 1000.000000000000000 ) ;
#27 = CIRCLE ( 'NONE', #189, 1.615440000000002700 ) ;
#28 = EDGE_CURVE ( 'NONE', #138, #82, #17, .T. ) ;
#29 = ORIENTED_EDGE ( 'NONE', *, *, #113, .T. ) ;
#30 =( NAMED_UNIT ( * ) SI_UNIT ( $, .STERADIAN. ) SOLID_ANGLE_UNIT ( ) );
#31 = UNCERTAINTY_MEASURE_WITH_UNIT (LENGTH_MEASURE( 1.000000000000000100E-005 ), #12, 'distance_accuracy_value', 'NONE');
#32 =( NAMED_UNIT ( * ) SI_UNIT ( $, .STERADIAN. ) SOLID_ANGLE_UNIT ( ) );
#33 = EDGE_LOOP ( 'NONE', ( #61, #146, #98, #22 ) ) ;
#34 = DIRECTION ( 'NONE',  ( 0.0000000000000000000, 1.000000000000000000, -9.796709245441552300E-021 ) ) ;
#35 = CONICAL_SURFACE ( 'NONE', #208, 1.615440000000002700, 0.7853981633974401700 ) ;
#36 = DIRECTION ( 'NONE',  ( 0.0000000000000000000, -1.000000000000000000, 0.0000000000000000000 ) ) ;
#37 = DIRECTION ( 'NONE',  ( 0.0000000000000000000, -0.9238795325112846300, 0.3826834323650947200 ) ) ;
#38 = EDGE_LOOP ( 'NONE', ( #105, #66, #53 ) ) ;
#39 = DIRECTION ( 'NONE',  ( 0.0000000000000000000, -9.796709245441552300E-021, -1.000000000000000000 ) ) ;
#40 = SHAPE_DEFINITION_REPRESENTATION ( #62, #47 ) ;
#41 = AXIS2_PLACEMENT_3D ( 'NONE', #87, #115, #174 ) ;
#42 = DIRECTION ( 'NONE',  ( 0.0000000000000000000, 1.000000000000000000, 0.0000000000000000000 ) ) ;
#43 = VERTEX_POINT ( 'NONE', #55 ) ;
#44 = PRODUCT_DEFINITION ( 'UNKNOWN', '', #171, #85 ) ;
#45 = LINE ( 'NONE', #99, #205 ) ;
#46 = COLOUR_RGB ( '',0.7921568627450980000, 0.8196078431372548800, 0.9333333333333333500 ) ;
#47 = ADVANCED_BREP_SHAPE_REPRESENTATION ( '03-0304', ( #101, #128 ), #191 ) ;
#48 = CARTESIAN_POINT ( 'NONE',  ( 0.0000000000000000000, 0.0000000000000000000, 0.0000000000000000000 ) ) ;
#49 = DIRECTION ( 'NONE',  ( 0.0000000000000000000, 0.0000000000000000000, 1.000000000000000000 ) ) ;
#50 = PRESENTATION_LAYER_ASSIGNMENT (  '', '', ( #58 ) ) ;
#51 = DIRECTION ( 'NONE',  ( 0.0000000000000000000, -9.796709245441552300E-021, -1.000000000000000000 ) ) ;
#52 = DIRECTION ( 'NONE',  ( 0.0000000000000000000, 1.000000000000000000, -9.796709245446434800E-021 ) ) ;
#53 = ORIENTED_EDGE ( 'NONE', *, *, #19, .F. ) ;
#54 = DIRECTION ( 'NONE',  ( 0.0000000000000000000, -9.796709245441552300E-021, -1.000000000000000000 ) ) ;
#55 = CARTESIAN_POINT ( 'NONE',  ( 0.0000000000000000000, -2.019300000000010100, -82.54999999999999700 ) ) ;
#56 = CARTESIAN_POINT ( 'NONE',  ( 0.0000000000000000000, 8.979796719512339700E-018, 916.6135785535000200 ) ) ;
#57 = CARTESIAN_POINT ( 'NONE',  ( 0.0000000000000000000, -8.169125259292123100E-019, -83.38642144650000900 ) ) ;
#58 = STYLED_ITEM ( 'NONE', ( #137 ), #47 ) ;
#59 = CONICAL_SURFACE ( 'NONE', #9, 1.615440000000002700, 0.7853981633974401700 ) ;
#60 = AXIS2_PLACEMENT_3D ( 'NONE', #214, #54, #34 ) ;
#61 = ORIENTED_EDGE ( 'NONE', *, *, #81, .F. ) ;
#62 = PRODUCT_DEFINITION_SHAPE ( 'NONE', 'NONE',  #44 ) ;
#63 = CIRCLE ( 'NONE', #41, 2.019300000000004300 ) ;
#64 = EDGE_CURVE ( 'NONE', #93, #126, #185, .T. ) ;
#65 = APPLICATION_CONTEXT ( 'automotive_design' ) ;
#66 = ORIENTED_EDGE ( 'NONE', *, *, #28, .T. ) ;
#67 = PRODUCT_RELATED_PRODUCT_CATEGORY ( 'part', '', ( #20 ) ) ;
#68 = CARTESIAN_POINT ( 'NONE',  ( 0.0000000000000000000, 0.0000000000000000000, 0.0000000000000000000 ) ) ;
#69 = DIRECTION ( 'NONE',  ( -0.0000000000000000000, 9.796709245441552300E-021, 1.000000000000000000 ) ) ;
#70 = FACE_OUTER_BOUND ( 'NONE', #157, .T. ) ;
#71 = CARTESIAN_POINT ( 'NONE',  ( 0.0000000000000000000, -8.169125259292123100E-019, -83.38642144650000900 ) ) ;
#72 =( LENGTH_UNIT ( ) NAMED_UNIT ( * ) SI_UNIT ( .MILLI., .METRE. ) );
#73 = EDGE_LOOP ( 'NONE', ( #14, #84, #25, #141 ) ) ;
#74 = VECTOR ( 'NONE', #79, 1000.000000000000000 ) ;
#75 =( LENGTH_UNIT ( ) NAMED_UNIT ( * ) SI_UNIT ( .MILLI., .METRE. ) );
#76 = CYLINDRICAL_SURFACE ( 'NONE', #194, 2.019300000000004300 ) ;
#77 = CLOSED_SHELL ( 'NONE', ( #168, #187, #107, #24, #86, #169, #164 ) ) ;
#78 = AXIS2_PLACEMENT_3D ( 'NONE', #196, #213, #117 ) ;
#79 = DIRECTION ( 'NONE',  ( 0.0000000000000000000, 0.7071067811865418000, -0.7071067811865532300 ) ) ;
#80 = CARTESIAN_POINT ( 'NONE',  ( 0.0000000000000000000, 1.211425359454379900E-036, 1.236563553234021700E-016 ) ) ;
#81 = EDGE_CURVE ( 'NONE', #82, #180, #132, .T. ) ;
#82 = VERTEX_POINT ( 'NONE', #133 ) ;
#83 = MECHANICAL_DESIGN_GEOMETRIC_PRESENTATION_REPRESENTATION (  '', ( #58 ), #89 ) ;
#84 = ORIENTED_EDGE ( 'NONE', *, *, #81, .T. ) ;
#85 = PRODUCT_DEFINITION_CONTEXT ( 'detailed design', #145, 'design' ) ;
#86 = ADVANCED_FACE ( 'NONE', ( #207 ), #100, .T. ) ;
#87 = CARTESIAN_POINT ( 'NONE',  ( 0.0000000000000000000, -3.956498995864103900E-021, -0.4038600000000079900 ) ) ;
#88 = UNCERTAINTY_MEASURE_WITH_UNIT (LENGTH_MEASURE( 1.000000000000000100E-005 ), #75, 'distance_accuracy_value', 'NONE');
#89 =( GEOMETRIC_REPRESENTATION_CONTEXT ( 3 ) GLOBAL_UNCERTAINTY_ASSIGNED_CONTEXT ( ( #166 ) ) GLOBAL_UNIT_ASSIGNED_CONTEXT ( ( #72, #197, #30 ) ) REPRESENTATION_CONTEXT ( 'NONE', 'WORKASPACE' ) );
#90 = AXIS2_PLACEMENT_3D ( 'NONE', #48, #69, #177 ) ;
#91 = EDGE_LOOP ( 'NONE', ( #109, #112, #170, #183 ) ) ;
#92 = EDGE_CURVE ( 'NONE', #43, #126, #193, .T. ) ;
#93 = VERTEX_POINT ( 'NONE', #201 ) ;
#94 = CIRCLE ( 'NONE', #204, 1.615440000000002700 ) ;
#95 = CARTESIAN_POINT ( 'NONE',  ( 0.0000000000000000000, -8.087183482112001700E-019, -82.54999999999999700 ) ) ;
#96 = CARTESIAN_POINT ( 'NONE',  ( 2.472929281518255500E-016, 2.019300000000004300, -1.978249497932016800E-020 ) ) ;
#97 = VECTOR ( 'NONE', #148, 1000.000000000000000 ) ;
#98 = ORIENTED_EDGE ( 'NONE', *, *, #92, .T. ) ;
#99 = CARTESIAN_POINT ( 'NONE',  ( 0.0000000000000000000, -8.169125259292123100E-019, -83.38642144650000900 ) ) ;
#100 = CONICAL_SURFACE ( 'NONE', #78, 2414.213562373058700, 1.178097245096167100 ) ;
#101 = MANIFOLD_SOLID_BREP ( '¸ðµû±â1', #77 ) ;
#102 = FILL_AREA_STYLE_COLOUR ( '', #46 ) ;
#103 = EDGE_CURVE ( 'NONE', #153, #180, #110, .T. ) ;
#104 = DIRECTION ( 'NONE',  ( -0.0000000000000000000, 9.796709245441552300E-021, 1.000000000000000000 ) ) ;
#105 = ORIENTED_EDGE ( 'NONE', *, *, #7, .F. ) ;
#106 = DIRECTION ( 'NONE',  ( -0.0000000000000000000, 9.796709245441552300E-021, 1.000000000000000000 ) ) ;
#107 = ADVANCED_FACE ( 'NONE', ( #203 ), #186, .T. ) ;
#108 = CIRCLE ( 'NONE', #111, 2.019300000000009600 ) ;
#109 = ORIENTED_EDGE ( 'NONE', *, *, #113, .F. ) ;
#110 = LINE ( 'NONE', #149, #74 ) ;
#111 = AXIS2_PLACEMENT_3D ( 'NONE', #2, #175, #36 ) ;
#112 = ORIENTED_EDGE ( 'NONE', *, *, #64, .T. ) ;
#113 = EDGE_CURVE ( 'NONE', #93, #153, #27, .T. ) ;
#114 = ORIENTED_EDGE ( 'NONE', *, *, #7, .T. ) ;
#115 = DIRECTION ( 'NONE',  ( 0.0000000000000000000, -9.796709245441552300E-021, -1.000000000000000000 ) ) ;
#116 = DIRECTION ( 'NONE',  ( 1.000000000000000000, 0.0000000000000000000, 0.0000000000000000000 ) ) ;
#117 = DIRECTION ( 'NONE',  ( 0.0000000000000000000, -1.000000000000000000, 0.0000000000000000000 ) ) ;
#118 = COLOUR_RGB ( '',0.7921568627450980000, 0.8196078431372548800, 0.9333333333333333500 ) ;
#119 = CARTESIAN_POINT ( 'NONE',  ( 2.472929281518255500E-016, 2.019300000000004300, -0.4038600000000079900 ) ) ;
#120 = FACE_OUTER_BOUND ( 'NONE', #33, .T. ) ;
#121 = DIRECTION ( 'NONE',  ( 0.0000000000000000000, -1.000000000000000000, 0.0000000000000000000 ) ) ;
#122 = EDGE_LOOP ( 'NONE', ( #188, #114, #206 ) ) ;
#123 =( NAMED_UNIT ( * ) PLANE_ANGLE_UNIT ( ) SI_UNIT ( $, .RADIAN. ) );
#124 = CARTESIAN_POINT ( 'NONE',  ( 0.0000000000000000000, -3.956498995864103900E-021, -0.4038600000000079900 ) ) ;
#125 = SURFACE_STYLE_FILL_AREA ( #129 ) ;
#126 = VERTEX_POINT ( 'NONE', #150 ) ;
#127 = PRESENTATION_LAYER_ASSIGNMENT (  '', '', ( #190 ) ) ;
#128 = AXIS2_PLACEMENT_3D ( 'NONE', #212, #49, #116 ) ;
#129 = FILL_AREA_STYLE ('',( #179 ) ) ;
#130 = PRODUCT_CONTEXT ( 'NONE', #65, 'mechanical' ) ;
#131 = PLANE ( 'NONE',  #60 ) ;
#132 = LINE ( 'NONE', #96, #26 ) ;
#133 = CARTESIAN_POINT ( 'NONE',  ( 2.472929281518261900E-016, 2.019300000000010100, -82.54999999999999700 ) ) ;
#134 =( NAMED_UNIT ( * ) SI_UNIT ( $, .STERADIAN. ) SOLID_ANGLE_UNIT ( ) );
#135 = MECHANICAL_DESIGN_GEOMETRIC_PRESENTATION_REPRESENTATION (  '', ( #190 ), #154 ) ;
#136 = DIRECTION ( 'NONE',  ( 0.0000000000000000000, 1.000000000000000000, -9.796709245446434800E-021 ) ) ;
#137 = PRESENTATION_STYLE_ASSIGNMENT (( #160 ) ) ;
#138 = VERTEX_POINT ( 'NONE', #57 ) ;
#139 = CYLINDRICAL_SURFACE ( 'NONE', #90, 2.019300000000004300 ) ;
#140 = AXIS2_PLACEMENT_3D ( 'NONE', #95, #200, #121 ) ;
#141 = ORIENTED_EDGE ( 'NONE', *, *, #92, .F. ) ;
#142 = EDGE_LOOP ( 'NONE', ( #1, #151, #192, #10 ) ) ;
#143 = DIRECTION ( 'NONE',  ( 0.0000000000000000000, 1.000000000000000000, -9.796709245446434800E-021 ) ) ;
#144 = DIRECTION ( 'NONE',  ( -0.0000000000000000000, 9.796709245441552300E-021, 1.000000000000000000 ) ) ;
#145 = APPLICATION_CONTEXT ( 'automotive_design' ) ;
#146 = ORIENTED_EDGE ( 'NONE', *, *, #4, .T. ) ;
#147 = DIRECTION ( 'NONE',  ( 1.131426112287697500E-016, 0.9238795325112846300, 0.3826834323650947200 ) ) ;
#148 = DIRECTION ( 'NONE',  ( 8.659560562354862600E-017, -0.7071067811865418000, -0.7071067811865532300 ) ) ;
#149 = CARTESIAN_POINT ( 'NONE',  ( 0.0000000000000000000, 1.615440000000002700, 1.236405293274187000E-016 ) ) ;
#150 = CARTESIAN_POINT ( 'NONE',  ( 0.0000000000000000000, -2.019300000000004300, -0.4038600000000079900 ) ) ;
#151 = ORIENTED_EDGE ( 'NONE', *, *, #209, .F. ) ;
#152 = VECTOR ( 'NONE', #21, 1000.000000000000000 ) ;
#153 = VERTEX_POINT ( 'NONE', #167 ) ;
#154 =( GEOMETRIC_REPRESENTATION_CONTEXT ( 3 ) GLOBAL_UNCERTAINTY_ASSIGNED_CONTEXT ( ( #88 ) ) GLOBAL_UNIT_ASSIGNED_CONTEXT ( ( #75, #123, #134 ) ) REPRESENTATION_CONTEXT ( 'NONE', 'WORKASPACE' ) );
#155 = PRESENTATION_STYLE_ASSIGNMENT (( #202 ) ) ;
#156 = CIRCLE ( 'NONE', #140, 2.019300000000009600 ) ;
#157 = EDGE_LOOP ( 'NONE', ( #198, #29 ) ) ;
#158 = CARTESIAN_POINT ( 'NONE',  ( 0.0000000000000000000, 1.211425359454379800E-036, 1.236563553234021700E-016 ) ) ;
#159 = DIRECTION ( 'NONE',  ( -0.0000000000000000000, 9.796709245441552300E-021, 1.000000000000000000 ) ) ;
#160 = SURFACE_STYLE_USAGE ( .BOTH. , #13 ) ;
#161 = FACE_OUTER_BOUND ( 'NONE', #142, .T. ) ;
#162 = EDGE_CURVE ( 'NONE', #180, #126, #8, .T. ) ;
#163 = SURFACE_SIDE_STYLE ('',( #3 ) ) ;
#164 = ADVANCED_FACE ( 'NONE', ( #161 ), #59, .T. ) ;
#165 = AXIS2_PLACEMENT_3D ( 'NONE', #56, #104, #182 ) ;
#166 = UNCERTAINTY_MEASURE_WITH_UNIT (LENGTH_MEASURE( 1.000000000000000100E-005 ), #72, 'distance_accuracy_value', 'NONE');
#167 = CARTESIAN_POINT ( 'NONE',  ( 0.0000000000000000000, 1.615440000000002700, 1.236405293274187000E-016 ) ) ;
#168 = ADVANCED_FACE ( 'NONE', ( #11 ), #35, .T. ) ;
#169 = ADVANCED_FACE ( 'NONE', ( #120 ), #139, .T. ) ;
#170 = ORIENTED_EDGE ( 'NONE', *, *, #162, .F. ) ;
#171 = PRODUCT_DEFINITION_FORMATION_WITH_SPECIFIED_SOURCE ( 'ANY', '', #20, .NOT_KNOWN. ) ;
#172 = VECTOR ( 'NONE', #147, 1000.000000000000100 ) ;
#173 = CARTESIAN_POINT ( 'NONE',  ( 0.0000000000000000000, 1.211425359454379900E-036, 1.236563553234021700E-016 ) ) ;
#174 = DIRECTION ( 'NONE',  ( 0.0000000000000000000, 1.000000000000000000, 0.0000000000000000000 ) ) ;
#175 = DIRECTION ( 'NONE',  ( -0.0000000000000000000, 9.796709245441552300E-021, 1.000000000000000000 ) ) ;
#176 =( NAMED_UNIT ( * ) PLANE_ANGLE_UNIT ( ) SI_UNIT ( $, .RADIAN. ) );
#177 = DIRECTION ( 'NONE',  ( 0.0000000000000000000, -1.000000000000000000, 9.796709245441552300E-021 ) ) ;
#178 = CARTESIAN_POINT ( 'NONE',  ( 1.978343425214603500E-016, -1.615440000000002700, 1.236721813193856400E-016 ) ) ;
#179 = FILL_AREA_STYLE_COLOUR ( '', #118 ) ;
#180 = VERTEX_POINT ( 'NONE', #119 ) ;
#181 = DIRECTION ( 'NONE',  ( 0.0000000000000000000, -9.796709245441552300E-021, -1.000000000000000000 ) ) ;
#182 = DIRECTION ( 'NONE',  ( 0.0000000000000000000, -1.000000000000000000, 0.0000000000000000000 ) ) ;
#183 = ORIENTED_EDGE ( 'NONE', *, *, #103, .F. ) ;
#184 = CARTESIAN_POINT ( 'NONE',  ( 0.0000000000000000000, 1.211425359454379800E-036, 1.236563553234021700E-016 ) ) ;
#185 = LINE ( 'NONE', #178, #97 ) ;
#186 = CONICAL_SURFACE ( 'NONE', #165, 2414.213562373058700, 1.178097245096167100 ) ;
#187 = ADVANCED_FACE ( 'NONE', ( #18 ), #76, .T. ) ;
#188 = ORIENTED_EDGE ( 'NONE', *, *, #28, .F. ) ;
#189 = AXIS2_PLACEMENT_3D ( 'NONE', #80, #106, #136 ) ;
#190 = STYLED_ITEM ( 'NONE', ( #155 ), #101 ) ;
#191 =( GEOMETRIC_REPRESENTATION_CONTEXT ( 3 ) GLOBAL_UNCERTAINTY_ASSIGNED_CONTEXT ( ( #31 ) ) GLOBAL_UNIT_ASSIGNED_CONTEXT ( ( #12, #176, #32 ) ) REPRESENTATION_CONTEXT ( 'NONE', 'WORKASPACE' ) );
#192 = ORIENTED_EDGE ( 'NONE', *, *, #103, .T. ) ;
#193 = LINE ( 'NONE', #5, #152 ) ;
#194 = AXIS2_PLACEMENT_3D ( 'NONE', #68, #159, #195 ) ;
#195 = DIRECTION ( 'NONE',  ( 0.0000000000000000000, -1.000000000000000000, 9.796709245441552300E-021 ) ) ;
#196 = CARTESIAN_POINT ( 'NONE',  ( 0.0000000000000000000, 8.979796719512339700E-018, 916.6135785535000200 ) ) ;
#197 =( NAMED_UNIT ( * ) PLANE_ANGLE_UNIT ( ) SI_UNIT ( $, .RADIAN. ) );
#198 = ORIENTED_EDGE ( 'NONE', *, *, #209, .T. ) ;
#199 = EDGE_CURVE ( 'NONE', #126, #180, #63, .T. ) ;
#200 = DIRECTION ( 'NONE',  ( -0.0000000000000000000, 9.796709245441552300E-021, 1.000000000000000000 ) ) ;
#201 = CARTESIAN_POINT ( 'NONE',  ( 2.225636353366429900E-016, -1.615440000000002700, 1.236721813193856400E-016 ) ) ;
#202 = SURFACE_STYLE_USAGE ( .BOTH. , #163 ) ;
#203 = FACE_OUTER_BOUND ( 'NONE', #38, .T. ) ;
#204 = AXIS2_PLACEMENT_3D ( 'NONE', #173, #15, #211 ) ;
#205 = VECTOR ( 'NONE', #37, 1000.000000000000100 ) ;
#206 = ORIENTED_EDGE ( 'NONE', *, *, #4, .F. ) ;
#207 = FACE_OUTER_BOUND ( 'NONE', #122, .T. ) ;
#208 = AXIS2_PLACEMENT_3D ( 'NONE', #158, #51, #143 ) ;
#209 = EDGE_CURVE ( 'NONE', #153, #93, #94, .T. ) ;
#210 = APPLICATION_PROTOCOL_DEFINITION ( 'draft international standard', 'automotive_design', 1998, #65 ) ;
#211 = DIRECTION ( 'NONE',  ( 0.0000000000000000000, 1.000000000000000000, -9.796709245446434800E-021 ) ) ;
#212 = CARTESIAN_POINT ( 'NONE',  ( 0.0000000000000000000, 0.0000000000000000000, 0.0000000000000000000 ) ) ;
#213 = DIRECTION ( 'NONE',  ( -0.0000000000000000000, 9.796709245441552300E-021, 1.000000000000000000 ) ) ;
#214 = CARTESIAN_POINT ( 'NONE',  ( 0.0000000000000000000, 2.019299999999999400, 1.236365728284228400E-016 ) ) ;
ENDSEC;
END-ISO-10303-21;
