ISO-10303-21;
HEADER;
FILE_DESCRIPTION (( 'STEP AP214' ),
    '1' );
FILE_NAME ('03-0306.STEP',
    '2020-07-23T06:33:33',
    ( '' ),
    ( '' ),
    'SwSTEP 2.0',
    'SolidWorks 2014',
    '' );
FILE_SCHEMA (( 'AUTOMOTIVE_DESIGN' ));
ENDSEC;

DATA;
#1 = PLANE ( 'NONE',  #12 ) ;
#2 = PRODUCT_DEFINITION_SHAPE ( 'NONE', 'NONE',  #207 ) ;
#3 = DIRECTION ( 'NONE',  ( 0.0000000000000000000, 1.486461734294755800E-020, -1.000000000000000000 ) ) ;
#4 = APPLICATION_CONTEXT ( 'automotive_design' ) ;
#5 = AXIS2_PLACEMENT_3D ( 'NONE', #48, #164, #196 ) ;
#6 = APPLICATION_CONTEXT ( 'automotive_design' ) ;
#7 = ORIENTED_EDGE ( 'NONE', *, *, #108, .F. ) ;
#8 = CONICAL_SURFACE ( 'NONE', #171, 2414.213562373067400, 1.178097245096168400 ) ;
#9 = AXIS2_PLACEMENT_3D ( 'NONE', #60, #182, #195 ) ;
#10 = ADVANCED_BREP_SHAPE_REPRESENTATION ( '03-0306', ( #163, #47 ), #136 ) ;
#11 = ORIENTED_EDGE ( 'NONE', *, *, #169, .F. ) ;
#12 = AXIS2_PLACEMENT_3D ( 'NONE', #94, #112, #181 ) ;
#13 = CIRCLE ( 'NONE', #9, 1.564639999999992300 ) ;
#14 = ORIENTED_EDGE ( 'NONE', *, *, #123, .F. ) ;
#15 = DIRECTION ( 'NONE',  ( 0.0000000000000000000, -1.000000000000000000, 0.0000000000000000000 ) ) ;
#16 = DIRECTION ( 'NONE',  ( -0.0000000000000000000, -1.486461734294755800E-020, 1.000000000000000000 ) ) ;
#17 = AXIS2_PLACEMENT_3D ( 'NONE', #93, #166, #61 ) ;
#18 = PRESENTATION_STYLE_ASSIGNMENT (( #50 ) ) ;
#19 = CARTESIAN_POINT ( 'NONE',  ( 0.0000000000000000000, 1.191921108828583000E-018, -80.18511888528931300 ) ) ;
#20 = DIRECTION ( 'NONE',  ( 1.131426112287698500E-016, 0.9238795325112851800, 0.3826834323650935000 ) ) ;
#21 = AXIS2_PLACEMENT_3D ( 'NONE', #81, #118, #68 ) ;
#22 = SURFACE_SIDE_STYLE ('',( #175 ) ) ;
#23 =( NAMED_UNIT ( * ) PLANE_ANGLE_UNIT ( ) SI_UNIT ( $, .RADIAN. ) );
#24 = ADVANCED_FACE ( 'NONE', ( #109 ), #1, .F. ) ;
#25 = AXIS2_PLACEMENT_3D ( 'NONE', #96, #97, #63 ) ;
#26 = AXIS2_PLACEMENT_3D ( 'NONE', #76, #92, #214 ) ;
#27 = LINE ( 'NONE', #189, #64 ) ;
#28 = EDGE_CURVE ( 'NONE', #209, #211, #131, .T. ) ;
#29 = VERTEX_POINT ( 'NONE', #30 ) ;
#30 = CARTESIAN_POINT ( 'NONE',  ( 2.395164209772399500E-016, 1.955800000000004900, -0.3911600000000122800 ) ) ;
#31 =( NAMED_UNIT ( * ) PLANE_ANGLE_UNIT ( ) SI_UNIT ( $, .RADIAN. ) );
#32 = COLOUR_RGB ( '',0.7921568627450980000, 0.8196078431372548800, 0.9333333333333333500 ) ;
#33 = SURFACE_SIDE_STYLE ('',( #56 ) ) ;
#34 =( NAMED_UNIT ( * ) PLANE_ANGLE_UNIT ( ) SI_UNIT ( $, .RADIAN. ) );
#35 = ORIENTED_EDGE ( 'NONE', *, *, #185, .F. ) ;
#36 = STYLED_ITEM ( 'NONE', ( #172 ), #163 ) ;
#37 = ADVANCED_FACE ( 'NONE', ( #178 ), #135, .T. ) ;
#38 = EDGE_LOOP ( 'NONE', ( #69, #190 ) ) ;
#39 = ADVANCED_FACE ( 'NONE', ( #139 ), #43, .T. ) ;
#40 = EDGE_CURVE ( 'NONE', #29, #211, #42, .T. ) ;
#41 = VERTEX_POINT ( 'NONE', #143 ) ;
#42 = CIRCLE ( 'NONE', #5, 1.955800000000004900 ) ;
#43 = CYLINDRICAL_SURFACE ( 'NONE', #17, 1.955800000000004900 ) ;
#44 = EDGE_LOOP ( 'NONE', ( #7, #59, #122, #142 ) ) ;
#45 = DIRECTION ( 'NONE',  ( -0.0000000000000000000, -1.486461734294755800E-020, 1.000000000000000000 ) ) ;
#46 = CARTESIAN_POINT ( 'NONE',  ( 0.0000000000000000000, 1.179879001596462500E-018, -79.37500000000000000 ) ) ;
#47 = AXIS2_PLACEMENT_3D ( 'NONE', #188, #204, #133 ) ;
#48 = CARTESIAN_POINT ( 'NONE',  ( 0.0000000000000000000, 5.814443719867549000E-021, -0.3911600000000122800 ) ) ;
#49 = CIRCLE ( 'NONE', #26, 1.564639999999992300 ) ;
#50 = SURFACE_STYLE_USAGE ( .BOTH. , #33 ) ;
#51 = FILL_AREA_STYLE_COLOUR ( '', #147 ) ;
#52 = APPLICATION_PROTOCOL_DEFINITION ( 'draft international standard', 'automotive_design', 1998, #4 ) ;
#53 = FACE_OUTER_BOUND ( 'NONE', #44, .T. ) ;
#54 = FACE_OUTER_BOUND ( 'NONE', #113, .T. ) ;
#55 = EDGE_CURVE ( 'NONE', #155, #209, #13, .T. ) ;
#56 = SURFACE_STYLE_FILL_AREA ( #186 ) ;
#57 = DIRECTION ( 'NONE',  ( 0.0000000000000000000, 1.000000000000000000, 1.486461734294091700E-020 ) ) ;
#58 = CARTESIAN_POINT ( 'NONE',  ( 1.916131367817904600E-016, -1.564639999999992300, 1.197204166044405300E-016 ) ) ;
#59 = ORIENTED_EDGE ( 'NONE', *, *, #28, .T. ) ;
#60 = CARTESIAN_POINT ( 'NONE',  ( 0.0000000000000000000, -1.779943898887105100E-036, 1.197436743793199800E-016 ) ) ;
#61 = DIRECTION ( 'NONE',  ( 0.0000000000000000000, -1.000000000000000000, -1.486461734294755800E-020 ) ) ;
#62 = PRODUCT_CONTEXT ( 'NONE', #6, 'mechanical' ) ;
#63 = DIRECTION ( 'NONE',  ( 0.0000000000000000000, -1.000000000000000000, 0.0000000000000000000 ) ) ;
#64 = VECTOR ( 'NONE', #83, 1000.000000000000000 ) ;
#65 = ORIENTED_EDGE ( 'NONE', *, *, #138, .T. ) ;
#66 = FILL_AREA_STYLE_COLOUR ( '', #32 ) ;
#67 = EDGE_CURVE ( 'NONE', #80, #71, #88, .T. ) ;
#68 = DIRECTION ( 'NONE',  ( 0.0000000000000000000, 1.000000000000000000, 1.486461734294091700E-020 ) ) ;
#69 = ORIENTED_EDGE ( 'NONE', *, *, #55, .T. ) ;
#70 = CYLINDRICAL_SURFACE ( 'NONE', #192, 1.955800000000004900 ) ;
#71 = VERTEX_POINT ( 'NONE', #77 ) ;
#72 = PRESENTATION_LAYER_ASSIGNMENT (  '', '', ( #203 ) ) ;
#73 = CIRCLE ( 'NONE', #75, 1.955800000000004900 ) ;
#74 = ORIENTED_EDGE ( 'NONE', *, *, #210, .T. ) ;
#75 = AXIS2_PLACEMENT_3D ( 'NONE', #146, #3, #184 ) ;
#76 = CARTESIAN_POINT ( 'NONE',  ( 0.0000000000000000000, -1.779943898887105100E-036, 1.197436743793199800E-016 ) ) ;
#77 = CARTESIAN_POINT ( 'NONE',  ( 0.0000000000000000000, -1.955800000000009800, -79.37500000000000000 ) ) ;
#78 = CARTESIAN_POINT ( 'NONE',  ( 0.0000000000000000000, 0.0000000000000000000, 0.0000000000000000000 ) ) ;
#79 = LINE ( 'NONE', #126, #89 ) ;
#80 = VERTEX_POINT ( 'NONE', #162 ) ;
#81 = CARTESIAN_POINT ( 'NONE',  ( 0.0000000000000000000, -1.779943898887105100E-036, 1.197436743793199800E-016 ) ) ;
#82 =( GEOMETRIC_REPRESENTATION_CONTEXT ( 3 ) GLOBAL_UNCERTAINTY_ASSIGNED_CONTEXT ( ( #159 ) ) GLOBAL_UNIT_ASSIGNED_CONTEXT ( ( #151, #31, #116 ) ) REPRESENTATION_CONTEXT ( 'NONE', 'WORKASPACE' ) );
#83 = DIRECTION ( 'NONE',  ( -0.0000000000000000000, -1.486461734294755800E-020, 1.000000000000000000 ) ) ;
#84 = FACE_OUTER_BOUND ( 'NONE', #173, .T. ) ;
#85 = ADVANCED_FACE ( 'NONE', ( #54 ), #137, .T. ) ;
#86 = VECTOR ( 'NONE', #20, 1000.000000000000000 ) ;
#87 = ORIENTED_EDGE ( 'NONE', *, *, #102, .T. ) ;
#88 = CIRCLE ( 'NONE', #154, 1.955800000000009800 ) ;
#89 = VECTOR ( 'NONE', #205, 1000.000000000000000 ) ;
#90 = ORIENTED_EDGE ( 'NONE', *, *, #115, .F. ) ;
#91 = AXIS2_PLACEMENT_3D ( 'NONE', #145, #111, #57 ) ;
#92 = DIRECTION ( 'NONE',  ( -0.0000000000000000000, -1.486461734294755800E-020, 1.000000000000000000 ) ) ;
#93 = CARTESIAN_POINT ( 'NONE',  ( 0.0000000000000000000, 0.0000000000000000000, 0.0000000000000000000 ) ) ;
#94 = CARTESIAN_POINT ( 'NONE',  ( 0.0000000000000000000, 1.955799999999999800, 1.197727465979193300E-016 ) ) ;
#95 = CARTESIAN_POINT ( 'NONE',  ( 2.303304630640496500E-050, 1.191921108828583400E-018, -80.18511888528931300 ) ) ;
#96 = CARTESIAN_POINT ( 'NONE',  ( 0.0000000000000000000, 1.179879001596462500E-018, -79.37500000000000000 ) ) ;
#97 = DIRECTION ( 'NONE',  ( -0.0000000000000000000, -1.486461734294755800E-020, 1.000000000000000000 ) ) ;
#98 = VECTOR ( 'NONE', #110, 1000.000000000000000 ) ;
#99 = CARTESIAN_POINT ( 'NONE',  ( 0.0000000000000000000, 1.564639999999992300, 1.197669321541994500E-016 ) ) ;
#100 = DIRECTION ( 'NONE',  ( 0.0000000000000000000, 0.7071067811865479100, -0.7071067811865470200 ) ) ;
#101 = FACE_OUTER_BOUND ( 'NONE', #157, .T. ) ;
#102 = EDGE_CURVE ( 'NONE', #211, #29, #73, .T. ) ;
#103 = ADVANCED_FACE ( 'NONE', ( #101 ), #70, .T. ) ;
#104 =( GEOMETRIC_REPRESENTATION_CONTEXT ( 3 ) GLOBAL_UNCERTAINTY_ASSIGNED_CONTEXT ( ( #144 ) ) GLOBAL_UNIT_ASSIGNED_CONTEXT ( ( #167, #23, #199 ) ) REPRESENTATION_CONTEXT ( 'NONE', 'WORKASPACE' ) );
#105 = UNCERTAINTY_MEASURE_WITH_UNIT (LENGTH_MEASURE( 1.000000000000000100E-005 ), #170, 'distance_accuracy_value', 'NONE');
#106 = ADVANCED_FACE ( 'NONE', ( #84 ), #8, .T. ) ;
#107 = ORIENTED_EDGE ( 'NONE', *, *, #102, .F. ) ;
#108 = EDGE_CURVE ( 'NONE', #209, #155, #49, .T. ) ;
#109 = FACE_OUTER_BOUND ( 'NONE', #38, .T. ) ;
#110 = DIRECTION ( 'NONE',  ( 0.0000000000000000000, -0.9238795325112851800, 0.3826834323650935000 ) ) ;
#111 = DIRECTION ( 'NONE',  ( 0.0000000000000000000, 1.486461734294755800E-020, -1.000000000000000000 ) ) ;
#112 = DIRECTION ( 'NONE',  ( 0.0000000000000000000, 1.486461734294755800E-020, -1.000000000000000000 ) ) ;
#113 = EDGE_LOOP ( 'NONE', ( #183, #125, #74, #107 ) ) ;
#114 = DIRECTION ( 'NONE',  ( -0.0000000000000000000, -1.486461734294755800E-020, 1.000000000000000000 ) ) ;
#115 = EDGE_CURVE ( 'NONE', #41, #71, #156, .T. ) ;
#116 =( NAMED_UNIT ( * ) SI_UNIT ( $, .STERADIAN. ) SOLID_ANGLE_UNIT ( ) );
#117 = CONICAL_SURFACE ( 'NONE', #21, 1.564639999999992300, 0.7853981633974488300 ) ;
#118 = DIRECTION ( 'NONE',  ( 0.0000000000000000000, 1.486461734294755800E-020, -1.000000000000000000 ) ) ;
#119 = PRODUCT_DEFINITION_FORMATION_WITH_SPECIFIED_SOURCE ( 'ANY', '', #141, .NOT_KNOWN. ) ;
#120 = ORIENTED_EDGE ( 'NONE', *, *, #138, .F. ) ;
#121 = ORIENTED_EDGE ( 'NONE', *, *, #115, .T. ) ;
#122 = ORIENTED_EDGE ( 'NONE', *, *, #40, .F. ) ;
#123 = EDGE_CURVE ( 'NONE', #41, #80, #177, .T. ) ;
#124 = MECHANICAL_DESIGN_GEOMETRIC_PRESENTATION_REPRESENTATION (  '', ( #36 ), #82 ) ;
#125 = ORIENTED_EDGE ( 'NONE', *, *, #55, .F. ) ;
#126 = CARTESIAN_POINT ( 'NONE',  ( 2.395164209772399500E-016, 1.955800000000004900, 2.907221859933690800E-020 ) ) ;
#127 = DIRECTION ( 'NONE',  ( 0.0000000000000000000, -1.000000000000000000, -1.486461734294755800E-020 ) ) ;
#128 = PRODUCT_RELATED_PRODUCT_CATEGORY ( 'part', '', ( #141 ) ) ;
#129 = CIRCLE ( 'NONE', #25, 1.955800000000009800 ) ;
#130 = CARTESIAN_POINT ( 'NONE',  ( 0.0000000000000000000, -1.367269623411897500E-017, 919.8148811147107200 ) ) ;
#131 = LINE ( 'NONE', #58, #168 ) ;
#132 = SURFACE_STYLE_USAGE ( .BOTH. , #22 ) ;
#133 = DIRECTION ( 'NONE',  ( 1.000000000000000000, 0.0000000000000000000, 0.0000000000000000000 ) ) ;
#134 = VECTOR ( 'NONE', #100, 1000.000000000000100 ) ;
#135 = CONICAL_SURFACE ( 'NONE', #149, 2414.213562373067400, 1.178097245096168400 ) ;
#136 =( GEOMETRIC_REPRESENTATION_CONTEXT ( 3 ) GLOBAL_UNCERTAINTY_ASSIGNED_CONTEXT ( ( #105 ) ) GLOBAL_UNIT_ASSIGNED_CONTEXT ( ( #170, #34, #187 ) ) REPRESENTATION_CONTEXT ( 'NONE', 'WORKASPACE' ) );
#137 = CONICAL_SURFACE ( 'NONE', #91, 1.564639999999992300, 0.7853981633974488300 ) ;
#138 = EDGE_CURVE ( 'NONE', #80, #29, #79, .T. ) ;
#139 = FACE_OUTER_BOUND ( 'NONE', #194, .T. ) ;
#140 = PRODUCT_DEFINITION_CONTEXT ( 'detailed design', #4, 'design' ) ;
#141 = PRODUCT ( '03-0306', '03-0306', '', ( #62 ) ) ;
#142 = ORIENTED_EDGE ( 'NONE', *, *, #210, .F. ) ;
#143 = CARTESIAN_POINT ( 'NONE',  ( 0.0000000000000000000, 1.191921108828583000E-018, -80.18511888528931300 ) ) ;
#144 = UNCERTAINTY_MEASURE_WITH_UNIT (LENGTH_MEASURE( 1.000000000000000100E-005 ), #167, 'distance_accuracy_value', 'NONE');
#145 = CARTESIAN_POINT ( 'NONE',  ( 0.0000000000000000000, -1.779943898887105100E-036, 1.197436743793199800E-016 ) ) ;
#146 = CARTESIAN_POINT ( 'NONE',  ( 0.0000000000000000000, 5.814443719867549000E-021, -0.3911600000000122800 ) ) ;
#147 = COLOUR_RGB ( '',0.7921568627450980000, 0.8196078431372548800, 0.9333333333333333500 ) ;
#148 = DIRECTION ( 'NONE',  ( 0.0000000000000000000, -1.000000000000000000, 0.0000000000000000000 ) ) ;
#149 = AXIS2_PLACEMENT_3D ( 'NONE', #130, #16, #15 ) ;
#150 = FILL_AREA_STYLE ('',( #66 ) ) ;
#151 =( LENGTH_UNIT ( ) NAMED_UNIT ( * ) SI_UNIT ( .MILLI., .METRE. ) );
#152 = CARTESIAN_POINT ( 'NONE',  ( 0.0000000000000000000, -1.955800000000004900, -0.3911600000000122800 ) ) ;
#153 = APPLICATION_PROTOCOL_DEFINITION ( 'draft international standard', 'automotive_design', 1998, #6 ) ;
#154 = AXIS2_PLACEMENT_3D ( 'NONE', #46, #45, #148 ) ;
#155 = VERTEX_POINT ( 'NONE', #99 ) ;
#156 = LINE ( 'NONE', #19, #98 ) ;
#157 = EDGE_LOOP ( 'NONE', ( #202, #65, #208, #35 ) ) ;
#158 = EDGE_LOOP ( 'NONE', ( #14, #121, #191 ) ) ;
#159 = UNCERTAINTY_MEASURE_WITH_UNIT (LENGTH_MEASURE( 1.000000000000000100E-005 ), #151, 'distance_accuracy_value', 'NONE');
#160 = SHAPE_DEFINITION_REPRESENTATION ( #2, #10 ) ;
#161 = ORIENTED_EDGE ( 'NONE', *, *, #185, .T. ) ;
#162 = CARTESIAN_POINT ( 'NONE',  ( 2.395164209772405900E-016, 1.955800000000009800, -79.37500000000000000 ) ) ;
#163 = MANIFOLD_SOLID_BREP ( '¸ðµû±â1', #179 ) ;
#164 = DIRECTION ( 'NONE',  ( 0.0000000000000000000, 1.486461734294755800E-020, -1.000000000000000000 ) ) ;
#165 = PRESENTATION_LAYER_ASSIGNMENT (  '', '', ( #36 ) ) ;
#166 = DIRECTION ( 'NONE',  ( -0.0000000000000000000, -1.486461734294755800E-020, 1.000000000000000000 ) ) ;
#167 =( LENGTH_UNIT ( ) NAMED_UNIT ( * ) SI_UNIT ( .MILLI., .METRE. ) );
#168 = VECTOR ( 'NONE', #213, 1000.000000000000100 ) ;
#169 = EDGE_CURVE ( 'NONE', #71, #80, #129, .T. ) ;
#170 =( LENGTH_UNIT ( ) NAMED_UNIT ( * ) SI_UNIT ( .MILLI., .METRE. ) );
#171 = AXIS2_PLACEMENT_3D ( 'NONE', #180, #212, #198 ) ;
#172 = PRESENTATION_STYLE_ASSIGNMENT (( #132 ) ) ;
#173 = EDGE_LOOP ( 'NONE', ( #90, #197, #11 ) ) ;
#174 = ADVANCED_FACE ( 'NONE', ( #53 ), #117, .T. ) ;
#175 = SURFACE_STYLE_FILL_AREA ( #150 ) ;
#176 = MECHANICAL_DESIGN_GEOMETRIC_PRESENTATION_REPRESENTATION (  '', ( #203 ), #104 ) ;
#177 = LINE ( 'NONE', #95, #86 ) ;
#178 = FACE_OUTER_BOUND ( 'NONE', #158, .T. ) ;
#179 = CLOSED_SHELL ( 'NONE', ( #174, #103, #106, #24, #37, #39, #85 ) ) ;
#180 = CARTESIAN_POINT ( 'NONE',  ( 0.0000000000000000000, -1.367269623411897500E-017, 919.8148811147107200 ) ) ;
#181 = DIRECTION ( 'NONE',  ( 0.0000000000000000000, 1.000000000000000000, 1.486461734294755800E-020 ) ) ;
#182 = DIRECTION ( 'NONE',  ( -0.0000000000000000000, -1.486461734294755800E-020, 1.000000000000000000 ) ) ;
#183 = ORIENTED_EDGE ( 'NONE', *, *, #28, .F. ) ;
#184 = DIRECTION ( 'NONE',  ( 0.0000000000000000000, 1.000000000000000000, 0.0000000000000000000 ) ) ;
#185 = EDGE_CURVE ( 'NONE', #71, #211, #27, .T. ) ;
#186 = FILL_AREA_STYLE ('',( #51 ) ) ;
#187 =( NAMED_UNIT ( * ) SI_UNIT ( $, .STERADIAN. ) SOLID_ANGLE_UNIT ( ) );
#188 = CARTESIAN_POINT ( 'NONE',  ( 0.0000000000000000000, 0.0000000000000000000, 0.0000000000000000000 ) ) ;
#189 = CARTESIAN_POINT ( 'NONE',  ( 0.0000000000000000000, -1.955800000000004900, -2.907221859933690800E-020 ) ) ;
#190 = ORIENTED_EDGE ( 'NONE', *, *, #108, .T. ) ;
#191 = ORIENTED_EDGE ( 'NONE', *, *, #67, .F. ) ;
#192 = AXIS2_PLACEMENT_3D ( 'NONE', #78, #114, #127 ) ;
#193 = LINE ( 'NONE', #200, #134 ) ;
#194 = EDGE_LOOP ( 'NONE', ( #120, #206, #161, #87 ) ) ;
#195 = DIRECTION ( 'NONE',  ( 0.0000000000000000000, 1.000000000000000000, 1.486461734294091700E-020 ) ) ;
#196 = DIRECTION ( 'NONE',  ( 0.0000000000000000000, 1.000000000000000000, 0.0000000000000000000 ) ) ;
#197 = ORIENTED_EDGE ( 'NONE', *, *, #123, .T. ) ;
#198 = DIRECTION ( 'NONE',  ( 0.0000000000000000000, -1.000000000000000000, 0.0000000000000000000 ) ) ;
#199 =( NAMED_UNIT ( * ) SI_UNIT ( $, .STERADIAN. ) SOLID_ANGLE_UNIT ( ) );
#200 = CARTESIAN_POINT ( 'NONE',  ( 0.0000000000000000000, 1.564639999999992300, 1.197669321541994500E-016 ) ) ;
#201 = CARTESIAN_POINT ( 'NONE',  ( 2.155647788795151800E-016, -1.564639999999992300, 1.197204166044405300E-016 ) ) ;
#202 = ORIENTED_EDGE ( 'NONE', *, *, #169, .T. ) ;
#203 = STYLED_ITEM ( 'NONE', ( #18 ), #10 ) ;
#204 = DIRECTION ( 'NONE',  ( 0.0000000000000000000, 0.0000000000000000000, 1.000000000000000000 ) ) ;
#205 = DIRECTION ( 'NONE',  ( -0.0000000000000000000, -1.486461734294755800E-020, 1.000000000000000000 ) ) ;
#206 = ORIENTED_EDGE ( 'NONE', *, *, #67, .T. ) ;
#207 = PRODUCT_DEFINITION ( 'UNKNOWN', '', #119, #140 ) ;
#208 = ORIENTED_EDGE ( 'NONE', *, *, #40, .T. ) ;
#209 = VERTEX_POINT ( 'NONE', #201 ) ;
#210 = EDGE_CURVE ( 'NONE', #155, #29, #193, .T. ) ;
#211 = VERTEX_POINT ( 'NONE', #152 ) ;
#212 = DIRECTION ( 'NONE',  ( -0.0000000000000000000, -1.486461734294755800E-020, 1.000000000000000000 ) ) ;
#213 = DIRECTION ( 'NONE',  ( 8.659560562354936600E-017, -0.7071067811865479100, -0.7071067811865470200 ) ) ;
#214 = DIRECTION ( 'NONE',  ( 0.0000000000000000000, 1.000000000000000000, 1.486461734294091700E-020 ) ) ;
ENDSEC;
END-ISO-10303-21;
