ISO-10303-21;
HEADER;
FILE_DESCRIPTION (( 'STEP AP214' ),
    '1' );
FILE_NAME ('03-0307.STEP',
    '2020-07-23T06:34:14',
    ( '' ),
    ( '' ),
    'SwSTEP 2.0',
    'SolidWorks 2014',
    '' );
FILE_SCHEMA (( 'AUTOMOTIVE_DESIGN' ));
ENDSEC;

DATA;
#1 = PRODUCT_DEFINITION_CONTEXT ( 'detailed design', #132, 'design' ) ;
#2 = EDGE_LOOP ( 'NONE', ( #21, #100, #124, #87 ) ) ;
#3 = EDGE_CURVE ( 'NONE', #35, #50, #104, .T. ) ;
#4 = FACE_OUTER_BOUND ( 'NONE', #2, .T. ) ;
#5 = ORIENTED_EDGE ( 'NONE', *, *, #27, .T. ) ;
#6 = DIRECTION ( 'NONE',  ( 0.0000000000000000000, -1.000000000000000000, 0.0000000000000000000 ) ) ;
#7 = VECTOR ( 'NONE', #177, 1000.000000000000000 ) ;
#8 = DIRECTION ( 'NONE',  ( 0.0000000000000000000, -1.443371181098118700E-020, -1.000000000000000000 ) ) ;
#9 = CARTESIAN_POINT ( 'NONE',  ( 2.364058181074055800E-016, 1.930400000000004300, -0.3860800000000019200 ) ) ;
#10 = VERTEX_POINT ( 'NONE', #9 ) ;
#11 = CARTESIAN_POINT ( 'NONE',  ( 1.891246544859242300E-016, -1.544320000000001700, 1.182391307421663900E-016 ) ) ;
#12 = CIRCLE ( 'NONE', #105, 1.930400000000004300 ) ;
#13 = CARTESIAN_POINT ( 'NONE',  ( 0.0000000000000000000, 1.327649477089701900E-017, 919.8254021391949200 ) ) ;
#14 = DIRECTION ( 'NONE',  ( 0.0000000000000000000, -1.000000000000000000, 0.0000000000000000000 ) ) ;
#15 = CONICAL_SURFACE ( 'NONE', #70, 2414.213562373061000, 1.178097245096167500 ) ;
#16 = PRODUCT_CONTEXT ( 'NONE', #185, 'mechanical' ) ;
#17 = ORIENTED_EDGE ( 'NONE', *, *, #167, .F. ) ;
#18 = FACE_OUTER_BOUND ( 'NONE', #157, .T. ) ;
#19 = AXIS2_PLACEMENT_3D ( 'NONE', #195, #135, #210 ) ;
#20 = STYLED_ITEM ( 'NONE', ( #85 ), #161 ) ;
#21 = ORIENTED_EDGE ( 'NONE', *, *, #141, .F. ) ;
#22 = CARTESIAN_POINT ( 'NONE',  ( 2.303304630640496500E-050, -1.157217040084168500E-018, -80.17459786080503600 ) ) ;
#23 = CARTESIAN_POINT ( 'NONE',  ( 0.0000000000000000000, -1.145675874996631800E-018, -79.37500000000000000 ) ) ;
#24 = ADVANCED_FACE ( 'NONE', ( #179 ), #15, .T. ) ;
#25 = PRODUCT_DEFINITION ( 'UNKNOWN', '', #111, #1 ) ;
#26 = UNCERTAINTY_MEASURE_WITH_UNIT (LENGTH_MEASURE( 1.000000000000000100E-005 ), #199, 'distance_accuracy_value', 'NONE');
#27 = EDGE_CURVE ( 'NONE', #116, #202, #57, .T. ) ;
#28 = COLOUR_RGB ( '',0.7921568627450980000, 0.8196078431372548800, 0.9333333333333333500 ) ;
#29 = SURFACE_STYLE_FILL_AREA ( #200 ) ;
#30 = DIRECTION ( 'NONE',  ( -0.0000000000000000000, 1.443371181098118700E-020, 1.000000000000000000 ) ) ;
#31 = PRESENTATION_LAYER_ASSIGNMENT (  '', '', ( #183 ) ) ;
#32 = ORIENTED_EDGE ( 'NONE', *, *, #38, .T. ) ;
#33 = SURFACE_STYLE_USAGE ( .BOTH. , #93 ) ;
#34 = ORIENTED_EDGE ( 'NONE', *, *, #51, .T. ) ;
#35 = VERTEX_POINT ( 'NONE', #121 ) ;
#36 = AXIS2_PLACEMENT_3D ( 'NONE', #142, #80, #48 ) ;
#37 = VECTOR ( 'NONE', #119, 1000.000000000000000 ) ;
#38 = EDGE_CURVE ( 'NONE', #134, #50, #208, .T. ) ;
#39 = CARTESIAN_POINT ( 'NONE',  ( 0.0000000000000000000, -1.157217040084168900E-018, -80.17459786080503600 ) ) ;
#40 = FILL_AREA_STYLE ('',( #174 ) ) ;
#41 = MECHANICAL_DESIGN_GEOMETRIC_PRESENTATION_REPRESENTATION (  '', ( #183 ), #140 ) ;
#42 = ORIENTED_EDGE ( 'NONE', *, *, #188, .T. ) ;
#43 = CARTESIAN_POINT ( 'NONE',  ( 0.0000000000000000000, -1.145675874996631800E-018, -79.37500000000000000 ) ) ;
#44 = CIRCLE ( 'NONE', #164, 1.544320000000001700 ) ;
#45 = CYLINDRICAL_SURFACE ( 'NONE', #148, 1.930400000000004300 ) ;
#46 = PLANE ( 'NONE',  #36 ) ;
#47 = DIRECTION ( 'NONE',  ( -0.0000000000000000000, 1.443371181098118700E-020, 1.000000000000000000 ) ) ;
#48 = DIRECTION ( 'NONE',  ( 0.0000000000000000000, 1.000000000000000000, -1.443371181098118700E-020 ) ) ;
#49 =( GEOMETRIC_REPRESENTATION_CONTEXT ( 3 ) GLOBAL_UNCERTAINTY_ASSIGNED_CONTEXT ( ( #67 ) ) GLOBAL_UNIT_ASSIGNED_CONTEXT ( ( #82, #169, #166 ) ) REPRESENTATION_CONTEXT ( 'NONE', 'WORKASPACE' ) );
#50 = VERTEX_POINT ( 'NONE', #136 ) ;
#51 = EDGE_CURVE ( 'NONE', #134, #35, #153, .T. ) ;
#52 = LINE ( 'NONE', #207, #7 ) ;
#53 = CARTESIAN_POINT ( 'NONE',  ( 0.0000000000000000000, 1.544320000000001700, 1.181945502025184900E-016 ) ) ;
#54 = LINE ( 'NONE', #89, #191 ) ;
#55 = CARTESIAN_POINT ( 'NONE',  ( 0.0000000000000000000, 1.706307806582528000E-036, 1.182168404723424300E-016 ) ) ;
#56 = CARTESIAN_POINT ( 'NONE',  ( 0.0000000000000000000, -1.930400000000004300, -0.3860800000000019200 ) ) ;
#57 = CIRCLE ( 'NONE', #19, 1.544320000000001700 ) ;
#58 = MECHANICAL_DESIGN_GEOMETRIC_PRESENTATION_REPRESENTATION (  '', ( #20 ), #49 ) ;
#59 = AXIS2_PLACEMENT_3D ( 'NONE', #23, #138, #190 ) ;
#60 = EDGE_LOOP ( 'NONE', ( #17, #162, #71, #106 ) ) ;
#61 =( GEOMETRIC_REPRESENTATION_CONTEXT ( 3 ) GLOBAL_UNCERTAINTY_ASSIGNED_CONTEXT ( ( #26 ) ) GLOBAL_UNIT_ASSIGNED_CONTEXT ( ( #199, #163, #64 ) ) REPRESENTATION_CONTEXT ( 'NONE', 'WORKASPACE' ) );
#62 = CARTESIAN_POINT ( 'NONE',  ( 0.0000000000000000000, -5.572567455983644400E-021, -0.3860800000000019200 ) ) ;
#63 = DIRECTION ( 'NONE',  ( -0.0000000000000000000, 1.443371181098118700E-020, 1.000000000000000000 ) ) ;
#64 =( NAMED_UNIT ( * ) SI_UNIT ( $, .STERADIAN. ) SOLID_ANGLE_UNIT ( ) );
#65 = MANIFOLD_SOLID_BREP ( '¸ðµû±â1', #173 ) ;
#66 = ORIENTED_EDGE ( 'NONE', *, *, #141, .T. ) ;
#67 = UNCERTAINTY_MEASURE_WITH_UNIT (LENGTH_MEASURE( 1.000000000000000100E-005 ), #82, 'distance_accuracy_value', 'NONE');
#68 = VECTOR ( 'NONE', #154, 1000.000000000000000 ) ;
#69 = AXIS2_PLACEMENT_3D ( 'NONE', #43, #47, #143 ) ;
#70 = AXIS2_PLACEMENT_3D ( 'NONE', #175, #99, #6 ) ;
#71 = ORIENTED_EDGE ( 'NONE', *, *, #88, .T. ) ;
#72 = CONICAL_SURFACE ( 'NONE', #75, 2414.213562373061000, 1.178097245096167500 ) ;
#73 =( NAMED_UNIT ( * ) SI_UNIT ( $, .STERADIAN. ) SOLID_ANGLE_UNIT ( ) );
#74 = PRODUCT_RELATED_PRODUCT_CATEGORY ( 'part', '', ( #155 ) ) ;
#75 = AXIS2_PLACEMENT_3D ( 'NONE', #13, #107, #14 ) ;
#76 = DIRECTION ( 'NONE',  ( 0.0000000000000000000, 1.000000000000000000, -1.443371181098633600E-020 ) ) ;
#77 = CARTESIAN_POINT ( 'NONE',  ( 0.0000000000000000000, 0.0000000000000000000, 0.0000000000000000000 ) ) ;
#78 = ORIENTED_EDGE ( 'NONE', *, *, #160, .T. ) ;
#79 = DIRECTION ( 'NONE',  ( -0.0000000000000000000, 1.443371181098118700E-020, 1.000000000000000000 ) ) ;
#80 = DIRECTION ( 'NONE',  ( 0.0000000000000000000, -1.443371181098118700E-020, -1.000000000000000000 ) ) ;
#81 = ORIENTED_EDGE ( 'NONE', *, *, #156, .T. ) ;
#82 =( LENGTH_UNIT ( ) NAMED_UNIT ( * ) SI_UNIT ( .MILLI., .METRE. ) );
#83 = ORIENTED_EDGE ( 'NONE', *, *, #160, .F. ) ;
#84 = SURFACE_SIDE_STYLE ('',( #118 ) ) ;
#85 = PRESENTATION_STYLE_ASSIGNMENT (( #33 ) ) ;
#86 = DIRECTION ( 'NONE',  ( 0.0000000000000000000, 1.000000000000000000, -1.443371181098633600E-020 ) ) ;
#87 = ORIENTED_EDGE ( 'NONE', *, *, #88, .F. ) ;
#88 = EDGE_CURVE ( 'NONE', #116, #10, #96, .T. ) ;
#89 = CARTESIAN_POINT ( 'NONE',  ( 0.0000000000000000000, -1.930400000000004300, 2.786283727991814400E-020 ) ) ;
#90 = LINE ( 'NONE', #11, #97 ) ;
#91 = DIRECTION ( 'NONE',  ( -0.0000000000000000000, 1.443371181098118700E-020, 1.000000000000000000 ) ) ;
#92 = CARTESIAN_POINT ( 'NONE',  ( 0.0000000000000000000, 0.0000000000000000000, 0.0000000000000000000 ) ) ;
#93 = SURFACE_SIDE_STYLE ('',( #29 ) ) ;
#94 = VERTEX_POINT ( 'NONE', #56 ) ;
#95 = DIRECTION ( 'NONE',  ( 0.0000000000000000000, -1.443371181098118700E-020, -1.000000000000000000 ) ) ;
#96 = LINE ( 'NONE', #53, #182 ) ;
#97 = VECTOR ( 'NONE', #181, 1000.000000000000100 ) ;
#98 = EDGE_LOOP ( 'NONE', ( #5, #66 ) ) ;
#99 = DIRECTION ( 'NONE',  ( -0.0000000000000000000, 1.443371181098118700E-020, 1.000000000000000000 ) ) ;
#100 = ORIENTED_EDGE ( 'NONE', *, *, #167, .T. ) ;
#101 = CARTESIAN_POINT ( 'NONE',  ( 0.0000000000000000000, 1.544320000000001700, 1.181945502025184900E-016 ) ) ;
#102 = PRODUCT_DEFINITION_SHAPE ( 'NONE', 'NONE',  #25 ) ;
#103 = CARTESIAN_POINT ( 'NONE',  ( 0.0000000000000000000, 0.0000000000000000000, 0.0000000000000000000 ) ) ;
#104 = CIRCLE ( 'NONE', #59, 1.930400000000009200 ) ;
#105 = AXIS2_PLACEMENT_3D ( 'NONE', #62, #95, #126 ) ;
#106 = ORIENTED_EDGE ( 'NONE', *, *, #171, .F. ) ;
#107 = DIRECTION ( 'NONE',  ( -0.0000000000000000000, 1.443371181098118700E-020, 1.000000000000000000 ) ) ;
#108 = DIRECTION ( 'NONE',  ( 0.0000000000000000000, -1.000000000000000000, 1.443371181098118700E-020 ) ) ;
#109 = DIRECTION ( 'NONE',  ( 0.0000000000000000000, 1.000000000000000000, 0.0000000000000000000 ) ) ;
#110 = ORIENTED_EDGE ( 'NONE', *, *, #3, .T. ) ;
#111 = PRODUCT_DEFINITION_FORMATION_WITH_SPECIFIED_SOURCE ( 'ANY', '', #155, .NOT_KNOWN. ) ;
#112 = DIRECTION ( 'NONE',  ( 1.000000000000000000, 0.0000000000000000000, 0.0000000000000000000 ) ) ;
#113 = CIRCLE ( 'NONE', #152, 1.930400000000004300 ) ;
#114 = UNCERTAINTY_MEASURE_WITH_UNIT (LENGTH_MEASURE( 1.000000000000000100E-005 ), #139, 'distance_accuracy_value', 'NONE');
#115 = AXIS2_PLACEMENT_3D ( 'NONE', #92, #201, #112 ) ;
#116 = VERTEX_POINT ( 'NONE', #101 ) ;
#117 = AXIS2_PLACEMENT_3D ( 'NONE', #103, #63, #108 ) ;
#118 = SURFACE_STYLE_FILL_AREA ( #40 ) ;
#119 = DIRECTION ( 'NONE',  ( 1.131426112287698000E-016, 0.9238795325112848500, 0.3826834323650943300 ) ) ;
#120 = FACE_OUTER_BOUND ( 'NONE', #98, .T. ) ;
#121 = CARTESIAN_POINT ( 'NONE',  ( 0.0000000000000000000, -1.930400000000008600, -79.37500000000000000 ) ) ;
#122 = EDGE_LOOP ( 'NONE', ( #172, #42, #78, #212 ) ) ;
#123 = ADVANCED_FACE ( 'NONE', ( #4 ), #168, .T. ) ;
#124 = ORIENTED_EDGE ( 'NONE', *, *, #156, .F. ) ;
#125 = COLOUR_RGB ( '',0.7921568627450980000, 0.8196078431372548800, 0.9333333333333333500 ) ;
#126 = DIRECTION ( 'NONE',  ( 0.0000000000000000000, 1.000000000000000000, 0.0000000000000000000 ) ) ;
#127 = CYLINDRICAL_SURFACE ( 'NONE', #117, 1.930400000000004300 ) ;
#128 = APPLICATION_PROTOCOL_DEFINITION ( 'draft international standard', 'automotive_design', 1998, #185 ) ;
#129 = APPLICATION_PROTOCOL_DEFINITION ( 'draft international standard', 'automotive_design', 1998, #132 ) ;
#130 = EDGE_CURVE ( 'NONE', #50, #10, #52, .T. ) ;
#131 = EDGE_LOOP ( 'NONE', ( #204, #34, #186 ) ) ;
#132 = APPLICATION_CONTEXT ( 'automotive_design' ) ;
#133 = FACE_OUTER_BOUND ( 'NONE', #122, .T. ) ;
#134 = VERTEX_POINT ( 'NONE', #198 ) ;
#135 = DIRECTION ( 'NONE',  ( -0.0000000000000000000, 1.443371181098118700E-020, 1.000000000000000000 ) ) ;
#136 = CARTESIAN_POINT ( 'NONE',  ( 2.364058181074061300E-016, 1.930400000000008600, -79.37500000000000000 ) ) ;
#137 = ADVANCED_FACE ( 'NONE', ( #133 ), #127, .T. ) ;
#138 = DIRECTION ( 'NONE',  ( -0.0000000000000000000, 1.443371181098118700E-020, 1.000000000000000000 ) ) ;
#139 =( LENGTH_UNIT ( ) NAMED_UNIT ( * ) SI_UNIT ( .MILLI., .METRE. ) );
#140 =( GEOMETRIC_REPRESENTATION_CONTEXT ( 3 ) GLOBAL_UNCERTAINTY_ASSIGNED_CONTEXT ( ( #114 ) ) GLOBAL_UNIT_ASSIGNED_CONTEXT ( ( #139, #205, #73 ) ) REPRESENTATION_CONTEXT ( 'NONE', 'WORKASPACE' ) );
#141 = EDGE_CURVE ( 'NONE', #202, #116, #44, .T. ) ;
#142 = CARTESIAN_POINT ( 'NONE',  ( 0.0000000000000000000, 1.930399999999999700, 1.181889776350625200E-016 ) ) ;
#143 = DIRECTION ( 'NONE',  ( 0.0000000000000000000, -1.000000000000000000, 0.0000000000000000000 ) ) ;
#144 = FILL_AREA_STYLE_COLOUR ( '', #125 ) ;
#145 = CARTESIAN_POINT ( 'NONE',  ( 0.0000000000000000000, 1.706307806582528000E-036, 1.182168404723424300E-016 ) ) ;
#146 = EDGE_LOOP ( 'NONE', ( #150, #32, #203 ) ) ;
#147 = DIRECTION ( 'NONE',  ( 0.0000000000000000000, 1.000000000000000000, -1.443371181098633600E-020 ) ) ;
#148 = AXIS2_PLACEMENT_3D ( 'NONE', #77, #30, #211 ) ;
#149 = CIRCLE ( 'NONE', #69, 1.930400000000009200 ) ;
#150 = ORIENTED_EDGE ( 'NONE', *, *, #51, .F. ) ;
#151 = AXIS2_PLACEMENT_3D ( 'NONE', #55, #8, #86 ) ;
#152 = AXIS2_PLACEMENT_3D ( 'NONE', #213, #214, #109 ) ;
#153 = LINE ( 'NONE', #39, #68 ) ;
#154 = DIRECTION ( 'NONE',  ( 0.0000000000000000000, -0.9238795325112848500, 0.3826834323650943300 ) ) ;
#155 = PRODUCT ( '03-0307', '03-0307', '', ( #16 ) ) ;
#156 = EDGE_CURVE ( 'NONE', #10, #94, #12, .T. ) ;
#157 = EDGE_LOOP ( 'NONE', ( #110, #196, #81, #83 ) ) ;
#158 = PRESENTATION_STYLE_ASSIGNMENT (( #192 ) ) ;
#159 = SHAPE_DEFINITION_REPRESENTATION ( #102, #161 ) ;
#160 = EDGE_CURVE ( 'NONE', #35, #94, #54, .T. ) ;
#161 = ADVANCED_BREP_SHAPE_REPRESENTATION ( '03-0307', ( #65, #115 ), #61 ) ;
#162 = ORIENTED_EDGE ( 'NONE', *, *, #27, .F. ) ;
#163 =( NAMED_UNIT ( * ) PLANE_ANGLE_UNIT ( ) SI_UNIT ( $, .RADIAN. ) );
#164 = AXIS2_PLACEMENT_3D ( 'NONE', #165, #91, #76 ) ;
#165 = CARTESIAN_POINT ( 'NONE',  ( 0.0000000000000000000, 1.706307806582528600E-036, 1.182168404723424300E-016 ) ) ;
#166 =( NAMED_UNIT ( * ) SI_UNIT ( $, .STERADIAN. ) SOLID_ANGLE_UNIT ( ) );
#167 = EDGE_CURVE ( 'NONE', #202, #94, #90, .T. ) ;
#168 = CONICAL_SURFACE ( 'NONE', #151, 1.544320000000001700, 0.7853981633974495000 ) ;
#169 =( NAMED_UNIT ( * ) PLANE_ANGLE_UNIT ( ) SI_UNIT ( $, .RADIAN. ) );
#170 = CONICAL_SURFACE ( 'NONE', #178, 1.544320000000001700, 0.7853981633974495000 ) ;
#171 = EDGE_CURVE ( 'NONE', #94, #10, #113, .T. ) ;
#172 = ORIENTED_EDGE ( 'NONE', *, *, #130, .F. ) ;
#173 = CLOSED_SHELL ( 'NONE', ( #123, #176, #193, #209, #24, #137, #180 ) ) ;
#174 = FILL_AREA_STYLE_COLOUR ( '', #28 ) ;
#175 = CARTESIAN_POINT ( 'NONE',  ( 0.0000000000000000000, 1.327649477089701900E-017, 919.8254021391949200 ) ) ;
#176 = ADVANCED_FACE ( 'NONE', ( #18 ), #45, .T. ) ;
#177 = DIRECTION ( 'NONE',  ( -0.0000000000000000000, 1.443371181098118700E-020, 1.000000000000000000 ) ) ;
#178 = AXIS2_PLACEMENT_3D ( 'NONE', #145, #197, #147 ) ;
#179 = FACE_OUTER_BOUND ( 'NONE', #131, .T. ) ;
#180 = ADVANCED_FACE ( 'NONE', ( #187 ), #170, .T. ) ;
#181 = DIRECTION ( 'NONE',  ( 8.659560562354942700E-017, -0.7071067811865483500, -0.7071067811865465700 ) ) ;
#182 = VECTOR ( 'NONE', #206, 1000.000000000000100 ) ;
#183 = STYLED_ITEM ( 'NONE', ( #158 ), #65 ) ;
#184 = CARTESIAN_POINT ( 'NONE',  ( 2.127652362966648900E-016, -1.544320000000001700, 1.182391307421663900E-016 ) ) ;
#185 = APPLICATION_CONTEXT ( 'automotive_design' ) ;
#186 = ORIENTED_EDGE ( 'NONE', *, *, #188, .F. ) ;
#187 = FACE_OUTER_BOUND ( 'NONE', #60, .T. ) ;
#188 = EDGE_CURVE ( 'NONE', #50, #35, #149, .T. ) ;
#189 = FACE_OUTER_BOUND ( 'NONE', #146, .T. ) ;
#190 = DIRECTION ( 'NONE',  ( 0.0000000000000000000, -1.000000000000000000, 0.0000000000000000000 ) ) ;
#191 = VECTOR ( 'NONE', #79, 1000.000000000000000 ) ;
#192 = SURFACE_STYLE_USAGE ( .BOTH. , #84 ) ;
#193 = ADVANCED_FACE ( 'NONE', ( #189 ), #72, .T. ) ;
#194 = PRESENTATION_LAYER_ASSIGNMENT (  '', '', ( #20 ) ) ;
#195 = CARTESIAN_POINT ( 'NONE',  ( 0.0000000000000000000, 1.706307806582528600E-036, 1.182168404723424300E-016 ) ) ;
#196 = ORIENTED_EDGE ( 'NONE', *, *, #130, .T. ) ;
#197 = DIRECTION ( 'NONE',  ( 0.0000000000000000000, -1.443371181098118700E-020, -1.000000000000000000 ) ) ;
#198 = CARTESIAN_POINT ( 'NONE',  ( 0.0000000000000000000, -1.157217040084168500E-018, -80.17459786080503600 ) ) ;
#199 =( LENGTH_UNIT ( ) NAMED_UNIT ( * ) SI_UNIT ( .MILLI., .METRE. ) );
#200 = FILL_AREA_STYLE ('',( #144 ) ) ;
#201 = DIRECTION ( 'NONE',  ( 0.0000000000000000000, 0.0000000000000000000, 1.000000000000000000 ) ) ;
#202 = VERTEX_POINT ( 'NONE', #184 ) ;
#203 = ORIENTED_EDGE ( 'NONE', *, *, #3, .F. ) ;
#204 = ORIENTED_EDGE ( 'NONE', *, *, #38, .F. ) ;
#205 =( NAMED_UNIT ( * ) PLANE_ANGLE_UNIT ( ) SI_UNIT ( $, .RADIAN. ) );
#206 = DIRECTION ( 'NONE',  ( 0.0000000000000000000, 0.7071067811865483500, -0.7071067811865465700 ) ) ;
#207 = CARTESIAN_POINT ( 'NONE',  ( 2.364058181074055800E-016, 1.930400000000004300, -2.786283727991814400E-020 ) ) ;
#208 = LINE ( 'NONE', #22, #37 ) ;
#209 = ADVANCED_FACE ( 'NONE', ( #120 ), #46, .F. ) ;
#210 = DIRECTION ( 'NONE',  ( 0.0000000000000000000, 1.000000000000000000, -1.443371181098633600E-020 ) ) ;
#211 = DIRECTION ( 'NONE',  ( 0.0000000000000000000, -1.000000000000000000, 1.443371181098118700E-020 ) ) ;
#212 = ORIENTED_EDGE ( 'NONE', *, *, #171, .T. ) ;
#213 = CARTESIAN_POINT ( 'NONE',  ( 0.0000000000000000000, -5.572567455983644400E-021, -0.3860800000000019200 ) ) ;
#214 = DIRECTION ( 'NONE',  ( 0.0000000000000000000, -1.443371181098118700E-020, -1.000000000000000000 ) ) ;
ENDSEC;
END-ISO-10303-21;
