ISO-10303-21;
HEADER;
FILE_DESCRIPTION (( 'STEP AP214' ),
    '1' );
FILE_NAME ('03-0308.STEP',
    '2020-07-23T06:34:55',
    ( '' ),
    ( '' ),
    'SwSTEP 2.0',
    'SolidWorks 2014',
    '' );
FILE_SCHEMA (( 'AUTOMOTIVE_DESIGN' ));
ENDSEC;

DATA;
#1 = ADVANCED_BREP_SHAPE_REPRESENTATION ( '03-0308', ( #44, #128 ), #212 ) ;
#2 = ADVANCED_FACE ( 'NONE', ( #205 ), #52, .T. ) ;
#3 = AXIS2_PLACEMENT_3D ( 'NONE', #171, #153, #211 ) ;
#4 = LINE ( 'NONE', #54, #148 ) ;
#5 = EDGE_LOOP ( 'NONE', ( #118, #91, #100, #139 ) ) ;
#6 = AXIS2_PLACEMENT_3D ( 'NONE', #60, #197, #65 ) ;
#7 = PRODUCT_RELATED_PRODUCT_CATEGORY ( 'part', '', ( #167 ) ) ;
#8 = VERTEX_POINT ( 'NONE', #95 ) ;
#9 = DIRECTION ( 'NONE',  ( 0.0000000000000000000, 1.000000000000000000, -5.472493744434409700E-021 ) ) ;
#10 = VECTOR ( 'NONE', #181, 1000.000000000000000 ) ;
#11 = ORIENTED_EDGE ( 'NONE', *, *, #189, .T. ) ;
#12 = DIRECTION ( 'NONE',  ( 0.0000000000000000000, -1.000000000000000000, 0.0000000000000000000 ) ) ;
#13 = AXIS2_PLACEMENT_3D ( 'NONE', #67, #116, #12 ) ;
#14 = VECTOR ( 'NONE', #48, 1000.000000000000000 ) ;
#15 = ADVANCED_FACE ( 'NONE', ( #24 ), #143, .T. ) ;
#16 = CARTESIAN_POINT ( 'NONE',  ( 0.0000000000000000000, -1.898650000000004600, -0.3797300000000109500 ) ) ;
#17 = DIRECTION ( 'NONE',  ( -0.0000000000000000000, 5.472493744432176100E-021, 1.000000000000000000 ) ) ;
#18 = CARTESIAN_POINT ( 'NONE',  ( 0.0000000000000000000, 5.051185897115971500E-018, 923.0135534198002500 ) ) ;
#19 = PRODUCT_DEFINITION_FORMATION_WITH_SPECIFIED_SOURCE ( 'ANY', '', #167, .NOT_KNOWN. ) ;
#20 = DIRECTION ( 'NONE',  ( -0.0000000000000000000, 5.472493744432176100E-021, 1.000000000000000000 ) ) ;
#21 = DIRECTION ( 'NONE',  ( -0.0000000000000000000, 5.472493744432176100E-021, 1.000000000000000000 ) ) ;
#22 =( NAMED_UNIT ( * ) SI_UNIT ( $, .STERADIAN. ) SOLID_ANGLE_UNIT ( ) );
#23 = EDGE_CURVE ( 'NONE', #144, #157, #115, .T. ) ;
#24 = FACE_OUTER_BOUND ( 'NONE', #130, .T. ) ;
#25 = CARTESIAN_POINT ( 'NONE',  ( 0.0000000000000000000, 6.362538892168265200E-037, 1.162639774351800500E-016 ) ) ;
#26 = ADVANCED_FACE ( 'NONE', ( #41 ), #98, .F. ) ;
#27 = ORIENTED_EDGE ( 'NONE', *, *, #163, .T. ) ;
#28 = CARTESIAN_POINT ( 'NONE',  ( 2.325175645201132600E-016, 1.898650000000008600, -76.19999999999998900 ) ) ;
#29 = VERTEX_POINT ( 'NONE', #28 ) ;
#30 = ORIENTED_EDGE ( 'NONE', *, *, #131, .F. ) ;
#31 = DIRECTION ( 'NONE',  ( -0.0000000000000000000, 5.472493744432176100E-021, 1.000000000000000000 ) ) ;
#32 = DIRECTION ( 'NONE',  ( 0.0000000000000000000, -1.000000000000000000, 0.0000000000000000000 ) ) ;
#33 = DIRECTION ( 'NONE',  ( 0.0000000000000000000, -0.9238795325112850700, 0.3826834323650937200 ) ) ;
#34 = DIRECTION ( 'NONE',  ( 0.0000000000000000000, -5.472493744432176100E-021, -1.000000000000000000 ) ) ;
#35 = UNCERTAINTY_MEASURE_WITH_UNIT (LENGTH_MEASURE( 1.000000000000000100E-005 ), #147, 'distance_accuracy_value', 'NONE');
#36 = AXIS2_PLACEMENT_3D ( 'NONE', #119, #20, #107 ) ;
#37 = EDGE_LOOP ( 'NONE', ( #73, #133, #87, #78 ) ) ;
#38 = SURFACE_SIDE_STYLE ('',( #190 ) ) ;
#39 = CARTESIAN_POINT ( 'NONE',  ( 2.092658080681008600E-016, -1.518919999999992900, 1.162722897153783700E-016 ) ) ;
#40 = AXIS2_PLACEMENT_3D ( 'NONE', #49, #31, #166 ) ;
#41 = FACE_OUTER_BOUND ( 'NONE', #152, .T. ) ;
#42 = ORIENTED_EDGE ( 'NONE', *, *, #92, .F. ) ;
#43 = EDGE_CURVE ( 'NONE', #157, #144, #186, .T. ) ;
#44 = MANIFOLD_SOLID_BREP ( '¸ðµû±â1', #159 ) ;
#45 = MECHANICAL_DESIGN_GEOMETRIC_PRESENTATION_REPRESENTATION (  '', ( #184 ), #206 ) ;
#46 = FACE_OUTER_BOUND ( 'NONE', #187, .T. ) ;
#47 = ORIENTED_EDGE ( 'NONE', *, *, #201, .T. ) ;
#48 = DIRECTION ( 'NONE',  ( -0.0000000000000000000, 5.472493744432176100E-021, 1.000000000000000000 ) ) ;
#49 = CARTESIAN_POINT ( 'NONE',  ( 0.0000000000000000000, 5.051185897115971500E-018, 923.0135534198002500 ) ) ;
#50 = AXIS2_PLACEMENT_3D ( 'NONE', #66, #145, #185 ) ;
#51 = SURFACE_SIDE_STYLE ('',( #173 ) ) ;
#52 = CYLINDRICAL_SURFACE ( 'NONE', #160, 1.898650000000004600 ) ;
#53 =( LENGTH_UNIT ( ) NAMED_UNIT ( * ) SI_UNIT ( .MILLI., .METRE. ) );
#54 = CARTESIAN_POINT ( 'NONE',  ( 2.325175645201128100E-016, 1.898650000000004600, -1.039035024786617500E-020 ) ) ;
#55 = PRESENTATION_STYLE_ASSIGNMENT (( #134 ) ) ;
#56 = AXIS2_PLACEMENT_3D ( 'NONE', #146, #34, #86 ) ;
#57 = AXIS2_PLACEMENT_3D ( 'NONE', #18, #21, #32 ) ;
#58 = ADVANCED_FACE ( 'NONE', ( #176 ), #138, .T. ) ;
#59 = FACE_OUTER_BOUND ( 'NONE', #5, .T. ) ;
#60 = CARTESIAN_POINT ( 'NONE',  ( 0.0000000000000000000, 0.0000000000000000000, 0.0000000000000000000 ) ) ;
#61 = PRESENTATION_LAYER_ASSIGNMENT (  '', '', ( #121 ) ) ;
#62 =( NAMED_UNIT ( * ) PLANE_ANGLE_UNIT ( ) SI_UNIT ( $, .RADIAN. ) );
#63 = DIRECTION ( 'NONE',  ( 0.0000000000000000000, -5.472493744432176800E-021, -1.000000000000000000 ) ) ;
#64 = CARTESIAN_POINT ( 'NONE',  ( 0.0000000000000000000, -4.170040233257317600E-019, -76.19999999999998900 ) ) ;
#65 = DIRECTION ( 'NONE',  ( 0.0000000000000000000, -1.000000000000000000, 5.472493744432175300E-021 ) ) ;
#66 = CARTESIAN_POINT ( 'NONE',  ( 0.0000000000000000000, -2.078070049573290300E-021, -0.3797300000000109500 ) ) ;
#67 = CARTESIAN_POINT ( 'NONE',  ( 0.0000000000000000000, -4.170040233257317600E-019, -76.19999999999998900 ) ) ;
#68 = DIRECTION ( 'NONE',  ( -0.0000000000000000000, 5.472493744432176100E-021, 1.000000000000000000 ) ) ;
#69 = CONICAL_SURFACE ( 'NONE', #193, 1.518919999999992900, 0.7853981633974488300 ) ;
#70 = COLOUR_RGB ( '',0.7921568627450980000, 0.8196078431372548800, 0.9333333333333333500 ) ;
#71 = ORIENTED_EDGE ( 'NONE', *, *, #92, .T. ) ;
#72 = AXIS2_PLACEMENT_3D ( 'NONE', #25, #214, #114 ) ;
#73 = ORIENTED_EDGE ( 'NONE', *, *, #178, .T. ) ;
#74 = UNCERTAINTY_MEASURE_WITH_UNIT (LENGTH_MEASURE( 1.000000000000000100E-005 ), #117, 'distance_accuracy_value', 'NONE');
#75 = ADVANCED_FACE ( 'NONE', ( #180 ), #110, .T. ) ;
#76 = VECTOR ( 'NONE', #101, 1000.000000000000200 ) ;
#77 = AXIS2_PLACEMENT_3D ( 'NONE', #104, #198, #161 ) ;
#78 = ORIENTED_EDGE ( 'NONE', *, *, #158, .F. ) ;
#79 = VECTOR ( 'NONE', #33, 1000.000000000000200 ) ;
#80 = LINE ( 'NONE', #156, #14 ) ;
#81 = ORIENTED_EDGE ( 'NONE', *, *, #155, .T. ) ;
#82 = ORIENTED_EDGE ( 'NONE', *, *, #158, .T. ) ;
#83 = FILL_AREA_STYLE_COLOUR ( '', #70 ) ;
#84 = APPLICATION_PROTOCOL_DEFINITION ( 'draft international standard', 'automotive_design', 1998, #151 ) ;
#85 = CARTESIAN_POINT ( 'NONE',  ( 5.758261576601241300E-051, -4.213078473162046100E-019, -76.98644658019968300 ) ) ;
#86 = DIRECTION ( 'NONE',  ( 0.0000000000000000000, 1.000000000000000000, -5.472493744432176100E-021 ) ) ;
#87 = ORIENTED_EDGE ( 'NONE', *, *, #43, .T. ) ;
#88 = DIRECTION ( 'NONE',  ( 0.0000000000000000000, 0.0000000000000000000, 1.000000000000000000 ) ) ;
#89 = VERTEX_POINT ( 'NONE', #102 ) ;
#90 = LINE ( 'NONE', #123, #10 ) ;
#91 = ORIENTED_EDGE ( 'NONE', *, *, #149, .T. ) ;
#92 = EDGE_CURVE ( 'NONE', #8, #126, #97, .T. ) ;
#93 = DIRECTION ( 'NONE',  ( -0.0000000000000000000, 5.472493744432176100E-021, 1.000000000000000000 ) ) ;
#94 = EDGE_LOOP ( 'NONE', ( #30, #27, #82, #169 ) ) ;
#95 = CARTESIAN_POINT ( 'NONE',  ( 0.0000000000000000000, 1.518919999999992900, 1.162556651549817600E-016 ) ) ;
#96 = PRODUCT_DEFINITION_CONTEXT ( 'detailed design', #106, 'design' ) ;
#97 = CIRCLE ( 'NONE', #36, 1.518919999999992900 ) ;
#98 = PLANE ( 'NONE',  #56 ) ;
#99 = COLOUR_RGB ( '',0.7921568627450980000, 0.8196078431372548800, 0.9333333333333333500 ) ;
#100 = ORIENTED_EDGE ( 'NONE', *, *, #43, .F. ) ;
#101 = DIRECTION ( 'NONE',  ( 1.131426112287698300E-016, 0.9238795325112850700, 0.3826834323650937200 ) ) ;
#102 = CARTESIAN_POINT ( 'NONE',  ( 0.0000000000000000000, -4.213078473162046100E-019, -76.98644658019968300 ) ) ;
#103 = CARTESIAN_POINT ( 'NONE',  ( 0.0000000000000000000, -4.213078473162047100E-019, -76.98644658019968300 ) ) ;
#104 = CARTESIAN_POINT ( 'NONE',  ( 0.0000000000000000000, -2.078070049573290300E-021, -0.3797300000000109500 ) ) ;
#105 = FILL_AREA_STYLE_COLOUR ( '', #99 ) ;
#106 = APPLICATION_CONTEXT ( 'automotive_design' ) ;
#107 = DIRECTION ( 'NONE',  ( 0.0000000000000000000, 1.000000000000000000, -5.472493744434409700E-021 ) ) ;
#108 = LINE ( 'NONE', #188, #183 ) ;
#109 = CONICAL_SURFACE ( 'NONE', #40, 2414.213562373065500, 1.178097245096168200 ) ;
#110 = CONICAL_SURFACE ( 'NONE', #57, 2414.213562373065500, 1.178097245096168200 ) ;
#111 = DIRECTION ( 'NONE',  ( 0.0000000000000000000, -1.000000000000000000, 5.472493744432175300E-021 ) ) ;
#112 = ADVANCED_FACE ( 'NONE', ( #59 ), #69, .T. ) ;
#113 = DIRECTION ( 'NONE',  ( 8.659560562354939000E-017, -0.7071067811865479100, -0.7071067811865471300 ) ) ;
#114 = DIRECTION ( 'NONE',  ( 0.0000000000000000000, 1.000000000000000000, -5.472493744434409700E-021 ) ) ;
#115 = CIRCLE ( 'NONE', #50, 1.898650000000004600 ) ;
#116 = DIRECTION ( 'NONE',  ( -0.0000000000000000000, 5.472493744432176100E-021, 1.000000000000000000 ) ) ;
#117 =( LENGTH_UNIT ( ) NAMED_UNIT ( * ) SI_UNIT ( .MILLI., .METRE. ) );
#118 = ORIENTED_EDGE ( 'NONE', *, *, #155, .F. ) ;
#119 = CARTESIAN_POINT ( 'NONE',  ( 0.0000000000000000000, 6.362538892168266900E-037, 1.162639774351800500E-016 ) ) ;
#120 = FILL_AREA_STYLE ('',( #83 ) ) ;
#121 = STYLED_ITEM ( 'NONE', ( #55 ), #44 ) ;
#122 = FILL_AREA_STYLE ('',( #105 ) ) ;
#123 = CARTESIAN_POINT ( 'NONE',  ( 0.0000000000000000000, 1.518919999999992900, 1.162556651549817600E-016 ) ) ;
#124 =( NAMED_UNIT ( * ) SI_UNIT ( $, .STERADIAN. ) SOLID_ANGLE_UNIT ( ) );
#125 = SURFACE_STYLE_USAGE ( .BOTH. , #38 ) ;
#126 = VERTEX_POINT ( 'NONE', #39 ) ;
#127 = ORIENTED_EDGE ( 'NONE', *, *, #149, .F. ) ;
#128 = AXIS2_PLACEMENT_3D ( 'NONE', #165, #88, #137 ) ;
#129 = CARTESIAN_POINT ( 'NONE',  ( 2.325175645201128100E-016, 1.898650000000004600, -0.3797300000000109500 ) ) ;
#130 = EDGE_LOOP ( 'NONE', ( #127, #42, #11, #174 ) ) ;
#131 = EDGE_CURVE ( 'NONE', #29, #157, #4, .T. ) ;
#132 = LINE ( 'NONE', #85, #76 ) ;
#133 = ORIENTED_EDGE ( 'NONE', *, *, #131, .T. ) ;
#134 = SURFACE_STYLE_USAGE ( .BOTH. , #51 ) ;
#135 = PRESENTATION_STYLE_ASSIGNMENT (( #125 ) ) ;
#136 = CIRCLE ( 'NONE', #192, 1.898650000000009100 ) ;
#137 = DIRECTION ( 'NONE',  ( 1.000000000000000000, 0.0000000000000000000, 0.0000000000000000000 ) ) ;
#138 = CYLINDRICAL_SURFACE ( 'NONE', #6, 1.898650000000004600 ) ;
#139 = ORIENTED_EDGE ( 'NONE', *, *, #189, .F. ) ;
#140 = ORIENTED_EDGE ( 'NONE', *, *, #163, .F. ) ;
#141 = CIRCLE ( 'NONE', #13, 1.898650000000009100 ) ;
#142 =( GEOMETRIC_REPRESENTATION_CONTEXT ( 3 ) GLOBAL_UNCERTAINTY_ASSIGNED_CONTEXT ( ( #74 ) ) GLOBAL_UNIT_ASSIGNED_CONTEXT ( ( #117, #204, #124 ) ) REPRESENTATION_CONTEXT ( 'NONE', 'WORKASPACE' ) );
#143 = CONICAL_SURFACE ( 'NONE', #72, 1.518919999999992900, 0.7853981633974488300 ) ;
#144 = VERTEX_POINT ( 'NONE', #16 ) ;
#145 = DIRECTION ( 'NONE',  ( 0.0000000000000000000, -5.472493744432176800E-021, -1.000000000000000000 ) ) ;
#146 = CARTESIAN_POINT ( 'NONE',  ( 0.0000000000000000000, 1.898649999999999900, 1.162535870849321900E-016 ) ) ;
#147 =( LENGTH_UNIT ( ) NAMED_UNIT ( * ) SI_UNIT ( .MILLI., .METRE. ) );
#148 = VECTOR ( 'NONE', #68, 1000.000000000000000 ) ;
#149 = EDGE_CURVE ( 'NONE', #126, #144, #108, .T. ) ;
#150 =( NAMED_UNIT ( * ) SI_UNIT ( $, .STERADIAN. ) SOLID_ANGLE_UNIT ( ) );
#151 = APPLICATION_CONTEXT ( 'automotive_design' ) ;
#152 = EDGE_LOOP ( 'NONE', ( #71, #81 ) ) ;
#153 = DIRECTION ( 'NONE',  ( -0.0000000000000000000, 5.472493744432176100E-021, 1.000000000000000000 ) ) ;
#154 = LINE ( 'NONE', #103, #79 ) ;
#155 = EDGE_CURVE ( 'NONE', #126, #8, #194, .T. ) ;
#156 = CARTESIAN_POINT ( 'NONE',  ( 0.0000000000000000000, -1.898650000000004600, 1.039035024786617500E-020 ) ) ;
#157 = VERTEX_POINT ( 'NONE', #129 ) ;
#158 = EDGE_CURVE ( 'NONE', #196, #144, #80, .T. ) ;
#159 = CLOSED_SHELL ( 'NONE', ( #112, #2, #75, #26, #175, #58, #15 ) ) ;
#160 = AXIS2_PLACEMENT_3D ( 'NONE', #191, #93, #111 ) ;
#161 = DIRECTION ( 'NONE',  ( 0.0000000000000000000, 1.000000000000000000, 0.0000000000000000000 ) ) ;
#162 = EDGE_LOOP ( 'NONE', ( #177, #210, #199 ) ) ;
#163 = EDGE_CURVE ( 'NONE', #29, #196, #141, .T. ) ;
#164 = CARTESIAN_POINT ( 'NONE',  ( 0.0000000000000000000, 6.362538892168265200E-037, 1.162639774351800500E-016 ) ) ;
#165 = CARTESIAN_POINT ( 'NONE',  ( 0.0000000000000000000, 0.0000000000000000000, 0.0000000000000000000 ) ) ;
#166 = DIRECTION ( 'NONE',  ( 0.0000000000000000000, -1.000000000000000000, 0.0000000000000000000 ) ) ;
#167 = PRODUCT ( '03-0308', '03-0308', '', ( #168 ) ) ;
#168 = PRODUCT_CONTEXT ( 'NONE', #151, 'mechanical' ) ;
#169 = ORIENTED_EDGE ( 'NONE', *, *, #23, .T. ) ;
#170 = PRODUCT_DEFINITION_SHAPE ( 'NONE', 'NONE',  #208 ) ;
#171 = CARTESIAN_POINT ( 'NONE',  ( 0.0000000000000000000, 6.362538892168266900E-037, 1.162639774351800500E-016 ) ) ;
#172 = MECHANICAL_DESIGN_GEOMETRIC_PRESENTATION_REPRESENTATION (  '', ( #121 ), #142 ) ;
#173 = SURFACE_STYLE_FILL_AREA ( #122 ) ;
#174 = ORIENTED_EDGE ( 'NONE', *, *, #23, .F. ) ;
#175 = ADVANCED_FACE ( 'NONE', ( #46 ), #109, .T. ) ;
#176 = FACE_OUTER_BOUND ( 'NONE', #94, .T. ) ;
#177 = ORIENTED_EDGE ( 'NONE', *, *, #201, .F. ) ;
#178 = EDGE_CURVE ( 'NONE', #196, #29, #136, .T. ) ;
#179 = PRESENTATION_LAYER_ASSIGNMENT (  '', '', ( #184 ) ) ;
#180 = FACE_OUTER_BOUND ( 'NONE', #162, .T. ) ;
#181 = DIRECTION ( 'NONE',  ( 0.0000000000000000000, 0.7071067811865479100, -0.7071067811865471300 ) ) ;
#182 = DIRECTION ( 'NONE',  ( 0.0000000000000000000, -1.000000000000000000, 0.0000000000000000000 ) ) ;
#183 = VECTOR ( 'NONE', #113, 1000.000000000000000 ) ;
#184 = STYLED_ITEM ( 'NONE', ( #135 ), #1 ) ;
#185 = DIRECTION ( 'NONE',  ( 0.0000000000000000000, 1.000000000000000000, 0.0000000000000000000 ) ) ;
#186 = CIRCLE ( 'NONE', #77, 1.898650000000004600 ) ;
#187 = EDGE_LOOP ( 'NONE', ( #213, #47, #140 ) ) ;
#188 = CARTESIAN_POINT ( 'NONE',  ( 1.860140516160889200E-016, -1.518919999999992900, 1.162722897153783700E-016 ) ) ;
#189 = EDGE_CURVE ( 'NONE', #8, #157, #90, .T. ) ;
#190 = SURFACE_STYLE_FILL_AREA ( #120 ) ;
#191 = CARTESIAN_POINT ( 'NONE',  ( 0.0000000000000000000, 0.0000000000000000000, 0.0000000000000000000 ) ) ;
#192 = AXIS2_PLACEMENT_3D ( 'NONE', #64, #17, #182 ) ;
#193 = AXIS2_PLACEMENT_3D ( 'NONE', #164, #63, #9 ) ;
#194 = CIRCLE ( 'NONE', #3, 1.518919999999992900 ) ;
#195 = EDGE_CURVE ( 'NONE', #89, #29, #132, .T. ) ;
#196 = VERTEX_POINT ( 'NONE', #203 ) ;
#197 = DIRECTION ( 'NONE',  ( -0.0000000000000000000, 5.472493744432176100E-021, 1.000000000000000000 ) ) ;
#198 = DIRECTION ( 'NONE',  ( 0.0000000000000000000, -5.472493744432176800E-021, -1.000000000000000000 ) ) ;
#199 = ORIENTED_EDGE ( 'NONE', *, *, #178, .F. ) ;
#200 = APPLICATION_PROTOCOL_DEFINITION ( 'draft international standard', 'automotive_design', 1998, #106 ) ;
#201 = EDGE_CURVE ( 'NONE', #89, #196, #154, .T. ) ;
#202 =( NAMED_UNIT ( * ) PLANE_ANGLE_UNIT ( ) SI_UNIT ( $, .RADIAN. ) );
#203 = CARTESIAN_POINT ( 'NONE',  ( 0.0000000000000000000, -1.898650000000008600, -76.19999999999998900 ) ) ;
#204 =( NAMED_UNIT ( * ) PLANE_ANGLE_UNIT ( ) SI_UNIT ( $, .RADIAN. ) );
#205 = FACE_OUTER_BOUND ( 'NONE', #37, .T. ) ;
#206 =( GEOMETRIC_REPRESENTATION_CONTEXT ( 3 ) GLOBAL_UNCERTAINTY_ASSIGNED_CONTEXT ( ( #35 ) ) GLOBAL_UNIT_ASSIGNED_CONTEXT ( ( #147, #202, #22 ) ) REPRESENTATION_CONTEXT ( 'NONE', 'WORKASPACE' ) );
#207 = UNCERTAINTY_MEASURE_WITH_UNIT (LENGTH_MEASURE( 1.000000000000000100E-005 ), #53, 'distance_accuracy_value', 'NONE');
#208 = PRODUCT_DEFINITION ( 'UNKNOWN', '', #19, #96 ) ;
#209 = SHAPE_DEFINITION_REPRESENTATION ( #170, #1 ) ;
#210 = ORIENTED_EDGE ( 'NONE', *, *, #195, .T. ) ;
#211 = DIRECTION ( 'NONE',  ( 0.0000000000000000000, 1.000000000000000000, -5.472493744434409700E-021 ) ) ;
#212 =( GEOMETRIC_REPRESENTATION_CONTEXT ( 3 ) GLOBAL_UNCERTAINTY_ASSIGNED_CONTEXT ( ( #207 ) ) GLOBAL_UNIT_ASSIGNED_CONTEXT ( ( #53, #62, #150 ) ) REPRESENTATION_CONTEXT ( 'NONE', 'WORKASPACE' ) );
#213 = ORIENTED_EDGE ( 'NONE', *, *, #195, .F. ) ;
#214 = DIRECTION ( 'NONE',  ( 0.0000000000000000000, -5.472493744432176800E-021, -1.000000000000000000 ) ) ;
ENDSEC;
END-ISO-10303-21;
