ISO-10303-21;
HEADER;
FILE_DESCRIPTION (( 'STEP AP214' ),
    '1' );
FILE_NAME ('03-0310.STEP',
    '2020-07-23T06:36:16',
    ( '' ),
    ( '' ),
    'SwSTEP 2.0',
    'SolidWorks 2014',
    '' );
FILE_SCHEMA (( 'AUTOMOTIVE_DESIGN' ));
ENDSEC;

DATA;
#1 = CARTESIAN_POINT ( 'NONE',  ( 2.239634066280685100E-016, 1.828800000000004600, 3.802641701640578300E-021 ) ) ;
#2 = FILL_AREA_STYLE_COLOUR ( '', #131 ) ;
#3 = ORIENTED_EDGE ( 'NONE', *, *, #139, .F. ) ;
#4 = LINE ( 'NONE', #198, #177 ) ;
#5 = AXIS2_PLACEMENT_3D ( 'NONE', #185, #38, #36 ) ;
#6 =( NAMED_UNIT ( * ) PLANE_ANGLE_UNIT ( ) SI_UNIT ( $, .RADIAN. ) );
#7 =( NAMED_UNIT ( * ) SI_UNIT ( $, .STERADIAN. ) SOLID_ANGLE_UNIT ( ) );
#8 = EDGE_LOOP ( 'NONE', ( #96, #195, #213, #3 ) ) ;
#9 = ADVANCED_FACE ( 'NONE', ( #31 ), #128, .T. ) ;
#10 = VECTOR ( 'NONE', #77, 999.9999999999998900 ) ;
#11 =( GEOMETRIC_REPRESENTATION_CONTEXT ( 3 ) GLOBAL_UNCERTAINTY_ASSIGNED_CONTEXT ( ( #194 ) ) GLOBAL_UNIT_ASSIGNED_CONTEXT ( ( #115, #119, #20 ) ) REPRESENTATION_CONTEXT ( 'NONE', 'WORKASPACE' ) );
#12 = ORIENTED_EDGE ( 'NONE', *, *, #107, .T. ) ;
#13 = DIRECTION ( 'NONE',  ( 8.659560562354932900E-017, -0.7071067811865474600, -0.7071067811865474600 ) ) ;
#14 = FACE_OUTER_BOUND ( 'NONE', #100, .T. ) ;
#15 = CARTESIAN_POINT ( 'NONE',  ( 0.0000000000000000000, 1.463039999999977900, 1.119828441065444700E-016 ) ) ;
#16 = ORIENTED_EDGE ( 'NONE', *, *, #103, .F. ) ;
#17 = DIRECTION ( 'NONE',  ( -0.0000000000000000000, -2.079309766863828200E-021, 1.000000000000000000 ) ) ;
#18 = CARTESIAN_POINT ( 'NONE',  ( 0.0000000000000000000, 7.605283403281688200E-022, -0.3657600000000264500 ) ) ;
#19 = ADVANCED_BREP_SHAPE_REPRESENTATION ( '03-0310', ( #166, #87 ), #138 ) ;
#20 =( NAMED_UNIT ( * ) SI_UNIT ( $, .STERADIAN. ) SOLID_ANGLE_UNIT ( ) );
#21 = AXIS2_PLACEMENT_3D ( 'NONE', #170, #22, #118 ) ;
#22 = DIRECTION ( 'NONE',  ( -0.0000000000000000000, -2.079309766863828200E-021, 1.000000000000000000 ) ) ;
#23 = PRODUCT_DEFINITION ( 'UNKNOWN', '', #153, #148 ) ;
#24 = VERTEX_POINT ( 'NONE', #64 ) ;
#25 = APPLICATION_PROTOCOL_DEFINITION ( 'draft international standard', 'automotive_design', 1998, #137 ) ;
#26 = CONICAL_SURFACE ( 'NONE', #58, 2414.213562373085600, 1.178097245096171100 ) ;
#27 = ORIENTED_EDGE ( 'NONE', *, *, #43, .T. ) ;
#28 = PRESENTATION_STYLE_ASSIGNMENT (( #175 ) ) ;
#29 = CIRCLE ( 'NONE', #210, 1.828800000000004600 ) ;
#30 = CARTESIAN_POINT ( 'NONE',  ( 0.0000000000000000000, 0.0000000000000000000, 0.0000000000000000000 ) ) ;
#31 = FACE_OUTER_BOUND ( 'NONE', #159, .T. ) ;
#32 = CIRCLE ( 'NONE', #134, 1.828800000000009300 ) ;
#33 = CARTESIAN_POINT ( 'NONE',  ( 0.0000000000000000000, -1.919291256863139500E-018, 923.0424862371320400 ) ) ;
#34 = AXIS2_PLACEMENT_3D ( 'NONE', #18, #48, #156 ) ;
#35 = UNCERTAINTY_MEASURE_WITH_UNIT (LENGTH_MEASURE( 1.000000000000000100E-005 ), #123, 'distance_accuracy_value', 'NONE');
#36 = DIRECTION ( 'NONE',  ( 0.0000000000000000000, 1.000000000000000000, 2.079309766863927100E-021 ) ) ;
#37 = CIRCLE ( 'NONE', #149, 1.463039999999977900 ) ;
#38 = DIRECTION ( 'NONE',  ( 0.0000000000000000000, 2.079309766863828200E-021, -1.000000000000000000 ) ) ;
#39 = VERTEX_POINT ( 'NONE', #94 ) ;
#40 = DIRECTION ( 'NONE',  ( -0.0000000000000000000, -2.079309766863828200E-021, 1.000000000000000000 ) ) ;
#41 = SURFACE_STYLE_FILL_AREA ( #98 ) ;
#42 = VECTOR ( 'NONE', #13, 1000.000000000000100 ) ;
#43 = EDGE_CURVE ( 'NONE', #53, #39, #106, .T. ) ;
#44 = APPLICATION_PROTOCOL_DEFINITION ( 'draft international standard', 'automotive_design', 1998, #141 ) ;
#45 = CONICAL_SURFACE ( 'NONE', #174, 1.463039999999977900, 0.7853981633974482800 ) ;
#46 = CARTESIAN_POINT ( 'NONE',  ( 0.0000000000000000000, 1.600185100006887300E-019, -76.95751376286791900 ) ) ;
#47 = DIRECTION ( 'NONE',  ( 0.0000000000000000000, 2.079309766863828200E-021, -1.000000000000000000 ) ) ;
#48 = DIRECTION ( 'NONE',  ( 0.0000000000000000000, 2.079309766863828200E-021, -1.000000000000000000 ) ) ;
#49 = CARTESIAN_POINT ( 'NONE',  ( 0.0000000000000000000, 1.600185100006887300E-019, -76.95751376286791900 ) ) ;
#50 = PRESENTATION_LAYER_ASSIGNMENT (  '', '', ( #206 ) ) ;
#51 = EDGE_LOOP ( 'NONE', ( #112, #163, #176, #121 ) ) ;
#52 = FILL_AREA_STYLE_COLOUR ( '', #161 ) ;
#53 = VERTEX_POINT ( 'NONE', #46 ) ;
#54 = DIRECTION ( 'NONE',  ( 1.000000000000000000, 0.0000000000000000000, 0.0000000000000000000 ) ) ;
#55 = ORIENTED_EDGE ( 'NONE', *, *, #169, .T. ) ;
#56 = EDGE_CURVE ( 'NONE', #39, #187, #182, .T. ) ;
#57 = ADVANCED_FACE ( 'NONE', ( #205 ), #26, .T. ) ;
#58 = AXIS2_PLACEMENT_3D ( 'NONE', #33, #111, #61 ) ;
#59 = DIRECTION ( 'NONE',  ( -0.0000000000000000000, -2.079309766863828200E-021, 1.000000000000000000 ) ) ;
#60 = ORIENTED_EDGE ( 'NONE', *, *, #114, .T. ) ;
#61 = DIRECTION ( 'NONE',  ( 0.0000000000000000000, -1.000000000000000000, 0.0000000000000000000 ) ) ;
#62 = LINE ( 'NONE', #49, #209 ) ;
#63 =( GEOMETRIC_REPRESENTATION_CONTEXT ( 3 ) GLOBAL_UNCERTAINTY_ASSIGNED_CONTEXT ( ( #35 ) ) GLOBAL_UNIT_ASSIGNED_CONTEXT ( ( #123, #143, #86 ) ) REPRESENTATION_CONTEXT ( 'NONE', 'WORKASPACE' ) );
#64 = CARTESIAN_POINT ( 'NONE',  ( 2.239634066280685100E-016, 1.828800000000004600, -0.3657600000000264500 ) ) ;
#65 = SURFACE_SIDE_STYLE ('',( #41 ) ) ;
#66 = CARTESIAN_POINT ( 'NONE',  ( 0.0000000000000000000, -1.828800000000009100, -76.19999999999998900 ) ) ;
#67 = FACE_OUTER_BOUND ( 'NONE', #142, .T. ) ;
#68 = ORIENTED_EDGE ( 'NONE', *, *, #56, .T. ) ;
#69 = ORIENTED_EDGE ( 'NONE', *, *, #56, .F. ) ;
#70 = MECHANICAL_DESIGN_GEOMETRIC_PRESENTATION_REPRESENTATION (  '', ( #206 ), #11 ) ;
#71 = FILL_AREA_STYLE ('',( #52 ) ) ;
#72 = SURFACE_SIDE_STYLE ('',( #173 ) ) ;
#73 = ORIENTED_EDGE ( 'NONE', *, *, #200, .T. ) ;
#74 = CIRCLE ( 'NONE', #164, 1.463039999999977900 ) ;
#75 = FACE_OUTER_BOUND ( 'NONE', #8, .T. ) ;
#76 = VERTEX_POINT ( 'NONE', #15 ) ;
#77 = DIRECTION ( 'NONE',  ( 1.131426112287700000E-016, 0.9238795325112861800, 0.3826834323650911100 ) ) ;
#78 = VERTEX_POINT ( 'NONE', #179 ) ;
#79 = EDGE_CURVE ( 'NONE', #24, #157, #29, .T. ) ;
#80 = SURFACE_STYLE_USAGE ( .BOTH. , #65 ) ;
#81 = DIRECTION ( 'NONE',  ( 0.0000000000000000000, 1.000000000000000000, 2.079309766863927100E-021 ) ) ;
#82 = DIRECTION ( 'NONE',  ( 0.0000000000000000000, -1.000000000000000000, -2.079309766863828200E-021 ) ) ;
#83 = PRODUCT_DEFINITION_SHAPE ( 'NONE', 'NONE',  #23 ) ;
#84 = PRESENTATION_LAYER_ASSIGNMENT (  '', '', ( #192 ) ) ;
#85 = EDGE_CURVE ( 'NONE', #78, #157, #88, .T. ) ;
#86 =( NAMED_UNIT ( * ) SI_UNIT ( $, .STERADIAN. ) SOLID_ANGLE_UNIT ( ) );
#87 = AXIS2_PLACEMENT_3D ( 'NONE', #183, #89, #54 ) ;
#88 = LINE ( 'NONE', #95, #42 ) ;
#89 = DIRECTION ( 'NONE',  ( 0.0000000000000000000, 0.0000000000000000000, 1.000000000000000000 ) ) ;
#90 = EDGE_CURVE ( 'NONE', #76, #24, #108, .T. ) ;
#91 = UNCERTAINTY_MEASURE_WITH_UNIT (LENGTH_MEASURE( 1.000000000000000100E-005 ), #144, 'distance_accuracy_value', 'NONE');
#92 = SHAPE_DEFINITION_REPRESENTATION ( #83, #19 ) ;
#93 = DIRECTION ( 'NONE',  ( -0.0000000000000000000, -2.079309766863828200E-021, 1.000000000000000000 ) ) ;
#94 = CARTESIAN_POINT ( 'NONE',  ( 2.239634066280690600E-016, 1.828800000000009100, -76.19999999999998900 ) ) ;
#95 = CARTESIAN_POINT ( 'NONE',  ( 1.791707253024516700E-016, -1.463039999999977900, 1.119767598798218600E-016 ) ) ;
#96 = ORIENTED_EDGE ( 'NONE', *, *, #103, .T. ) ;
#97 = DIRECTION ( 'NONE',  ( 0.0000000000000000000, 1.000000000000000000, 2.079309766863927100E-021 ) ) ;
#98 = FILL_AREA_STYLE ('',( #2 ) ) ;
#99 = CARTESIAN_POINT ( 'NONE',  ( 0.0000000000000000000, -2.328406959759033200E-037, 1.119798019931831800E-016 ) ) ;
#100 = EDGE_LOOP ( 'NONE', ( #147, #27, #16 ) ) ;
#101 = DIRECTION ( 'NONE',  ( 0.0000000000000000000, -1.000000000000000000, 0.0000000000000000000 ) ) ;
#102 = ORIENTED_EDGE ( 'NONE', *, *, #200, .F. ) ;
#103 = EDGE_CURVE ( 'NONE', #187, #39, #32, .T. ) ;
#104 = EDGE_LOOP ( 'NONE', ( #186, #12, #69 ) ) ;
#105 = AXIS2_PLACEMENT_3D ( 'NONE', #30, #59, #127 ) ;
#106 = LINE ( 'NONE', #110, #10 ) ;
#107 = EDGE_CURVE ( 'NONE', #53, #187, #62, .T. ) ;
#108 = LINE ( 'NONE', #129, #207 ) ;
#109 = DIRECTION ( 'NONE',  ( 0.0000000000000000000, 1.000000000000000000, 0.0000000000000000000 ) ) ;
#110 = CARTESIAN_POINT ( 'NONE',  ( 0.0000000000000000000, 1.600185100006887300E-019, -76.95751376286791900 ) ) ;
#111 = DIRECTION ( 'NONE',  ( -0.0000000000000000000, -2.079309766863828200E-021, 1.000000000000000000 ) ) ;
#112 = ORIENTED_EDGE ( 'NONE', *, *, #85, .F. ) ;
#113 = CARTESIAN_POINT ( 'NONE',  ( 0.0000000000000000000, 1.584434042350236800E-019, -76.19999999999998900 ) ) ;
#114 = EDGE_CURVE ( 'NONE', #76, #78, #74, .T. ) ;
#115 =( LENGTH_UNIT ( ) NAMED_UNIT ( * ) SI_UNIT ( .MILLI., .METRE. ) );
#116 = DIRECTION ( 'NONE',  ( 0.0000000000000000000, 0.7071067811865474600, -0.7071067811865474600 ) ) ;
#117 = MECHANICAL_DESIGN_GEOMETRIC_PRESENTATION_REPRESENTATION (  '', ( #192 ), #63 ) ;
#118 = DIRECTION ( 'NONE',  ( 0.0000000000000000000, -1.000000000000000000, 0.0000000000000000000 ) ) ;
#119 =( NAMED_UNIT ( * ) PLANE_ANGLE_UNIT ( ) SI_UNIT ( $, .RADIAN. ) );
#120 = DIRECTION ( 'NONE',  ( 0.0000000000000000000, -0.9238795325112861800, 0.3826834323650911100 ) ) ;
#121 = ORIENTED_EDGE ( 'NONE', *, *, #169, .F. ) ;
#122 = VECTOR ( 'NONE', #171, 1000.000000000000000 ) ;
#123 =( LENGTH_UNIT ( ) NAMED_UNIT ( * ) SI_UNIT ( .MILLI., .METRE. ) );
#124 = ADVANCED_FACE ( 'NONE', ( #146 ), #45, .T. ) ;
#125 = PRODUCT_CONTEXT ( 'NONE', #137, 'mechanical' ) ;
#126 = EDGE_CURVE ( 'NONE', #39, #24, #188, .T. ) ;
#127 = DIRECTION ( 'NONE',  ( 0.0000000000000000000, -1.000000000000000000, -2.079309766863828200E-021 ) ) ;
#128 = CYLINDRICAL_SURFACE ( 'NONE', #105, 1.828800000000004600 ) ;
#129 = CARTESIAN_POINT ( 'NONE',  ( 0.0000000000000000000, 1.463039999999977900, 1.119828441065444700E-016 ) ) ;
#130 = CARTESIAN_POINT ( 'NONE',  ( 0.0000000000000000000, 7.605283403281688200E-022, -0.3657600000000264500 ) ) ;
#131 = COLOUR_RGB ( '',0.7921568627450980000, 0.8196078431372548800, 0.9333333333333333500 ) ;
#132 = PLANE ( 'NONE',  #162 ) ;
#133 = CARTESIAN_POINT ( 'NONE',  ( 0.0000000000000000000, 1.584434042350236800E-019, -76.19999999999998900 ) ) ;
#134 = AXIS2_PLACEMENT_3D ( 'NONE', #133, #199, #101 ) ;
#135 = CYLINDRICAL_SURFACE ( 'NONE', #180, 1.828800000000004600 ) ;
#136 = CARTESIAN_POINT ( 'NONE',  ( 0.0000000000000000000, -1.828800000000004600, -0.3657600000000264500 ) ) ;
#137 = APPLICATION_CONTEXT ( 'automotive_design' ) ;
#138 =( GEOMETRIC_REPRESENTATION_CONTEXT ( 3 ) GLOBAL_UNCERTAINTY_ASSIGNED_CONTEXT ( ( #91 ) ) GLOBAL_UNIT_ASSIGNED_CONTEXT ( ( #144, #6, #7 ) ) REPRESENTATION_CONTEXT ( 'NONE', 'WORKASPACE' ) );
#139 = EDGE_CURVE ( 'NONE', #187, #157, #4, .T. ) ;
#140 = PRODUCT_RELATED_PRODUCT_CATEGORY ( 'part', '', ( #158 ) ) ;
#141 = APPLICATION_CONTEXT ( 'automotive_design' ) ;
#142 = EDGE_LOOP ( 'NONE', ( #102, #189, #172, #160 ) ) ;
#143 =( NAMED_UNIT ( * ) PLANE_ANGLE_UNIT ( ) SI_UNIT ( $, .RADIAN. ) );
#144 =( LENGTH_UNIT ( ) NAMED_UNIT ( * ) SI_UNIT ( .MILLI., .METRE. ) );
#145 = ADVANCED_FACE ( 'NONE', ( #14 ), #154, .T. ) ;
#146 = FACE_OUTER_BOUND ( 'NONE', #51, .T. ) ;
#147 = ORIENTED_EDGE ( 'NONE', *, *, #107, .F. ) ;
#148 = PRODUCT_DEFINITION_CONTEXT ( 'detailed design', #141, 'design' ) ;
#149 = AXIS2_PLACEMENT_3D ( 'NONE', #204, #197, #97 ) ;
#150 = CLOSED_SHELL ( 'NONE', ( #190, #193, #145, #208, #57, #9, #124 ) ) ;
#151 = AXIS2_PLACEMENT_3D ( 'NONE', #113, #93, #165 ) ;
#152 = CARTESIAN_POINT ( 'NONE',  ( 0.0000000000000000000, 1.828799999999999500, 1.119836046348847900E-016 ) ) ;
#153 = PRODUCT_DEFINITION_FORMATION_WITH_SPECIFIED_SOURCE ( 'ANY', '', #158, .NOT_KNOWN. ) ;
#154 = CONICAL_SURFACE ( 'NONE', #21, 2414.213562373085600, 1.178097245096171100 ) ;
#155 = DIRECTION ( 'NONE',  ( 0.0000000000000000000, 1.000000000000000000, 2.079309766863927100E-021 ) ) ;
#156 = DIRECTION ( 'NONE',  ( 0.0000000000000000000, 1.000000000000000000, 0.0000000000000000000 ) ) ;
#157 = VERTEX_POINT ( 'NONE', #136 ) ;
#158 = PRODUCT ( '03-0310', '03-0310', '', ( #125 ) ) ;
#159 = EDGE_LOOP ( 'NONE', ( #191, #68, #201, #55 ) ) ;
#160 = ORIENTED_EDGE ( 'NONE', *, *, #90, .F. ) ;
#161 = COLOUR_RGB ( '',0.7921568627450980000, 0.8196078431372548800, 0.9333333333333333500 ) ;
#162 = AXIS2_PLACEMENT_3D ( 'NONE', #152, #47, #167 ) ;
#163 = ORIENTED_EDGE ( 'NONE', *, *, #114, .F. ) ;
#164 = AXIS2_PLACEMENT_3D ( 'NONE', #99, #40, #155 ) ;
#165 = DIRECTION ( 'NONE',  ( 0.0000000000000000000, -1.000000000000000000, 0.0000000000000000000 ) ) ;
#166 = MANIFOLD_SOLID_BREP ( '¸ðµû±â1', #150 ) ;
#167 = DIRECTION ( 'NONE',  ( 0.0000000000000000000, 1.000000000000000000, 2.079309766863828200E-021 ) ) ;
#168 = CARTESIAN_POINT ( 'NONE',  ( 0.0000000000000000000, -2.328406959759033600E-037, 1.119798019931831800E-016 ) ) ;
#169 = EDGE_CURVE ( 'NONE', #157, #24, #212, .T. ) ;
#170 = CARTESIAN_POINT ( 'NONE',  ( 0.0000000000000000000, -1.919291256863139500E-018, 923.0424862371320400 ) ) ;
#171 = DIRECTION ( 'NONE',  ( -0.0000000000000000000, -2.079309766863828200E-021, 1.000000000000000000 ) ) ;
#172 = ORIENTED_EDGE ( 'NONE', *, *, #79, .F. ) ;
#173 = SURFACE_STYLE_FILL_AREA ( #71 ) ;
#174 = AXIS2_PLACEMENT_3D ( 'NONE', #168, #202, #81 ) ;
#175 = SURFACE_STYLE_USAGE ( .BOTH. , #72 ) ;
#176 = ORIENTED_EDGE ( 'NONE', *, *, #90, .T. ) ;
#177 = VECTOR ( 'NONE', #181, 1000.000000000000000 ) ;
#178 = CONICAL_SURFACE ( 'NONE', #5, 1.463039999999977900, 0.7853981633974482800 ) ;
#179 = CARTESIAN_POINT ( 'NONE',  ( 2.015670659652600600E-016, -1.463039999999977900, 1.119767598798218600E-016 ) ) ;
#180 = AXIS2_PLACEMENT_3D ( 'NONE', #184, #17, #82 ) ;
#181 = DIRECTION ( 'NONE',  ( -0.0000000000000000000, -2.079309766863828200E-021, 1.000000000000000000 ) ) ;
#182 = CIRCLE ( 'NONE', #151, 1.828800000000009300 ) ;
#183 = CARTESIAN_POINT ( 'NONE',  ( 0.0000000000000000000, 0.0000000000000000000, 0.0000000000000000000 ) ) ;
#184 = CARTESIAN_POINT ( 'NONE',  ( 0.0000000000000000000, 0.0000000000000000000, 0.0000000000000000000 ) ) ;
#185 = CARTESIAN_POINT ( 'NONE',  ( 0.0000000000000000000, -2.328406959759033600E-037, 1.119798019931831800E-016 ) ) ;
#186 = ORIENTED_EDGE ( 'NONE', *, *, #43, .F. ) ;
#187 = VERTEX_POINT ( 'NONE', #66 ) ;
#188 = LINE ( 'NONE', #1, #122 ) ;
#189 = ORIENTED_EDGE ( 'NONE', *, *, #85, .T. ) ;
#190 = ADVANCED_FACE ( 'NONE', ( #67 ), #178, .T. ) ;
#191 = ORIENTED_EDGE ( 'NONE', *, *, #126, .F. ) ;
#192 = STYLED_ITEM ( 'NONE', ( #28 ), #19 ) ;
#193 = ADVANCED_FACE ( 'NONE', ( #75 ), #135, .T. ) ;
#194 = UNCERTAINTY_MEASURE_WITH_UNIT (LENGTH_MEASURE( 1.000000000000000100E-005 ), #115, 'distance_accuracy_value', 'NONE');
#195 = ORIENTED_EDGE ( 'NONE', *, *, #126, .T. ) ;
#196 = EDGE_LOOP ( 'NONE', ( #60, #73 ) ) ;
#197 = DIRECTION ( 'NONE',  ( -0.0000000000000000000, -2.079309766863828200E-021, 1.000000000000000000 ) ) ;
#198 = CARTESIAN_POINT ( 'NONE',  ( 0.0000000000000000000, -1.828800000000004600, -3.802641701640578300E-021 ) ) ;
#199 = DIRECTION ( 'NONE',  ( -0.0000000000000000000, -2.079309766863828200E-021, 1.000000000000000000 ) ) ;
#200 = EDGE_CURVE ( 'NONE', #78, #76, #37, .T. ) ;
#201 = ORIENTED_EDGE ( 'NONE', *, *, #139, .T. ) ;
#202 = DIRECTION ( 'NONE',  ( 0.0000000000000000000, 2.079309766863828200E-021, -1.000000000000000000 ) ) ;
#203 = FACE_OUTER_BOUND ( 'NONE', #196, .T. ) ;
#204 = CARTESIAN_POINT ( 'NONE',  ( 0.0000000000000000000, -2.328406959759033200E-037, 1.119798019931831800E-016 ) ) ;
#205 = FACE_OUTER_BOUND ( 'NONE', #104, .T. ) ;
#206 = STYLED_ITEM ( 'NONE', ( #214 ), #166 ) ;
#207 = VECTOR ( 'NONE', #116, 1000.000000000000100 ) ;
#208 = ADVANCED_FACE ( 'NONE', ( #203 ), #132, .F. ) ;
#209 = VECTOR ( 'NONE', #120, 999.9999999999998900 ) ;
#210 = AXIS2_PLACEMENT_3D ( 'NONE', #130, #211, #109 ) ;
#211 = DIRECTION ( 'NONE',  ( 0.0000000000000000000, 2.079309766863828200E-021, -1.000000000000000000 ) ) ;
#212 = CIRCLE ( 'NONE', #34, 1.828800000000004600 ) ;
#213 = ORIENTED_EDGE ( 'NONE', *, *, #79, .T. ) ;
#214 = PRESENTATION_STYLE_ASSIGNMENT (( #80 ) ) ;
ENDSEC;
END-ISO-10303-21;
