ISO-10303-21;
HEADER;
FILE_DESCRIPTION (( 'STEP AP214' ),
    '1' );
FILE_NAME ('03-0313.STEP',
    '2020-07-23T06:38:19',
    ( '' ),
    ( '' ),
    'SwSTEP 2.0',
    'SolidWorks 2014',
    '' );
FILE_SCHEMA (( 'AUTOMOTIVE_DESIGN' ));
ENDSEC;

DATA;
#1 = ORIENTED_EDGE ( 'NONE', *, *, #68, .T. ) ;
#2 =( LENGTH_UNIT ( ) NAMED_UNIT ( * ) SI_UNIT ( .MILLI., .METRE. ) );
#3 = ORIENTED_EDGE ( 'NONE', *, *, #75, .T. ) ;
#4 = SHAPE_DEFINITION_REPRESENTATION ( #63, #150 ) ;
#5 = PRESENTATION_STYLE_ASSIGNMENT (( #201 ) ) ;
#6 = APPLICATION_CONTEXT ( 'automotive_design' ) ;
#7 = AXIS2_PLACEMENT_3D ( 'NONE', #11, #157, #125 ) ;
#8 = FACE_OUTER_BOUND ( 'NONE', #195, .T. ) ;
#9 = CARTESIAN_POINT ( 'NONE',  ( 0.0000000000000000000, 2.417550820297200800E-017, 929.4740241768852200 ) ) ;
#10 = DIRECTION ( 'NONE',  ( -0.0000000000000000000, 2.600988039916567400E-020, 1.000000000000000000 ) ) ;
#11 = CARTESIAN_POINT ( 'NONE',  ( 0.0000000000000000000, -8.489364863483625900E-021, -0.3263899999999977400 ) ) ;
#12 = COLOUR_RGB ( '',0.7921568627450980000, 0.8196078431372548800, 0.9333333333333333500 ) ;
#13 = ADVANCED_FACE ( 'NONE', ( #30 ), #133, .F. ) ;
#14 = COLOUR_RGB ( '',0.7921568627450980000, 0.8196078431372548800, 0.9333333333333333500 ) ;
#15 = AXIS2_PLACEMENT_3D ( 'NONE', #9, #56, #23 ) ;
#16 = VECTOR ( 'NONE', #91, 1000.000000000000100 ) ;
#17 =( NAMED_UNIT ( * ) PLANE_ANGLE_UNIT ( ) SI_UNIT ( $, .RADIAN. ) );
#18 = CARTESIAN_POINT ( 'NONE',  ( 0.0000000000000000000, 2.599670395126735900E-036, 9.994934060558487300E-017 ) ) ;
#19 = FACE_OUTER_BOUND ( 'NONE', #177, .T. ) ;
#20 = EDGE_CURVE ( 'NONE', #186, #45, #175, .T. ) ;
#21 = SURFACE_STYLE_USAGE ( .BOTH. , #142 ) ;
#22 = VECTOR ( 'NONE', #102, 1000.000000000000000 ) ;
#23 = DIRECTION ( 'NONE',  ( 0.0000000000000000000, -1.000000000000000000, 0.0000000000000000000 ) ) ;
#24 =( NAMED_UNIT ( * ) SI_UNIT ( $, .STERADIAN. ) SOLID_ANGLE_UNIT ( ) );
#25 = PRESENTATION_LAYER_ASSIGNMENT (  '', '', ( #26 ) ) ;
#26 = STYLED_ITEM ( 'NONE', ( #5 ), #150 ) ;
#27 = VERTEX_POINT ( 'NONE', #113 ) ;
#28 = AXIS2_PLACEMENT_3D ( 'NONE', #179, #128, #164 ) ;
#29 = AXIS2_PLACEMENT_3D ( 'NONE', #61, #78, #185 ) ;
#30 = FACE_OUTER_BOUND ( 'NONE', #132, .T. ) ;
#31 = DIRECTION ( 'NONE',  ( 8.659560562354862600E-017, -0.7071067811865419100, -0.7071067811865531200 ) ) ;
#32 = FILL_AREA_STYLE_COLOUR ( '', #12 ) ;
#33 = ORIENTED_EDGE ( 'NONE', *, *, #55, .T. ) ;
#34 = CYLINDRICAL_SURFACE ( 'NONE', #161, 1.631950000000004000 ) ;
#35 = APPLICATION_PROTOCOL_DEFINITION ( 'draft international standard', 'automotive_design', 1998, #6 ) ;
#36 = EDGE_LOOP ( 'NONE', ( #111, #114, #90 ) ) ;
#37 = DIRECTION ( 'NONE',  ( -0.0000000000000000000, 2.600988039916567400E-020, 1.000000000000000000 ) ) ;
#38 = AXIS2_PLACEMENT_3D ( 'NONE', #199, #85, #137 ) ;
#39 = EDGE_LOOP ( 'NONE', ( #50, #1, #3, #138 ) ) ;
#40 = DIRECTION ( 'NONE',  ( 0.0000000000000000000, -1.000000000000000000, 0.0000000000000000000 ) ) ;
#41 = AXIS2_PLACEMENT_3D ( 'NONE', #18, #80, #65 ) ;
#42 = VECTOR ( 'NONE', #192, 1000.000000000000000 ) ;
#43 = DIRECTION ( 'NONE',  ( 1.131426112287699300E-016, 0.9238795325112859600, 0.3826834323650916100 ) ) ;
#44 = DIRECTION ( 'NONE',  ( 0.0000000000000000000, -1.000000000000000000, 0.0000000000000000000 ) ) ;
#45 = VERTEX_POINT ( 'NONE', #196 ) ;
#46 = UNCERTAINTY_MEASURE_WITH_UNIT (LENGTH_MEASURE( 1.000000000000000100E-005 ), #143, 'distance_accuracy_value', 'NONE');
#47 = CIRCLE ( 'NONE', #197, 1.305560000000011400 ) ;
#48 = DIRECTION ( 'NONE',  ( -0.0000000000000000000, 2.600988039916567400E-020, 1.000000000000000000 ) ) ;
#49 = FILL_AREA_STYLE ('',( #32 ) ) ;
#50 = ORIENTED_EDGE ( 'NONE', *, *, #159, .T. ) ;
#51 = EDGE_CURVE ( 'NONE', #95, #45, #62, .T. ) ;
#52 = PRODUCT_DEFINITION ( 'UNKNOWN', '', #92, #94 ) ;
#53 = CIRCLE ( 'NONE', #88, 1.631950000000008200 ) ;
#54 = CARTESIAN_POINT ( 'NONE',  ( 1.998562343868528000E-016, 1.631950000000004000, -4.244682431741852500E-020 ) ) ;
#55 = EDGE_CURVE ( 'NONE', #200, #27, #160, .T. ) ;
#56 = DIRECTION ( 'NONE',  ( -0.0000000000000000000, 2.600988039916567400E-020, 1.000000000000000000 ) ) ;
#57 = VECTOR ( 'NONE', #73, 1000.000000000000000 ) ;
#58 = DIRECTION ( 'NONE',  ( -0.0000000000000000000, 2.600988039916567400E-020, 1.000000000000000000 ) ) ;
#59 = LINE ( 'NONE', #69, #16 ) ;
#60 = EDGE_CURVE ( 'NONE', #186, #200, #47, .T. ) ;
#61 = CARTESIAN_POINT ( 'NONE',  ( 0.0000000000000000000, 1.631949999999999800, 9.990689378126744900E-017 ) ) ;
#62 = LINE ( 'NONE', #84, #22 ) ;
#63 = PRODUCT_DEFINITION_SHAPE ( 'NONE', 'NONE',  #52 ) ;
#64 = DIRECTION ( 'NONE',  ( 1.000000000000000000, 0.0000000000000000000, 0.0000000000000000000 ) ) ;
#65 = DIRECTION ( 'NONE',  ( 0.0000000000000000000, 1.000000000000000000, -2.600988039916705200E-020 ) ) ;
#66 = VECTOR ( 'NONE', #31, 1000.000000000000000 ) ;
#67 = CARTESIAN_POINT ( 'NONE',  ( 0.0000000000000000000, 0.0000000000000000000, 0.0000000000000000000 ) ) ;
#68 = EDGE_CURVE ( 'NONE', #151, #27, #178, .T. ) ;
#69 = CARTESIAN_POINT ( 'NONE',  ( 0.0000000000000000000, -1.834372196193665100E-018, -70.52597582311477700 ) ) ;
#70 = ORIENTED_EDGE ( 'NONE', *, *, #145, .T. ) ;
#71 =( NAMED_UNIT ( * ) PLANE_ANGLE_UNIT ( ) SI_UNIT ( $, .RADIAN. ) );
#72 = MECHANICAL_DESIGN_GEOMETRIC_PRESENTATION_REPRESENTATION (  '', ( #26 ), #98 ) ;
#73 = DIRECTION ( 'NONE',  ( 0.0000000000000000000, 0.7071067811865419100, -0.7071067811865531200 ) ) ;
#74 = CYLINDRICAL_SURFACE ( 'NONE', #184, 1.631950000000004000 ) ;
#75 = EDGE_CURVE ( 'NONE', #27, #45, #118, .T. ) ;
#76 = ORIENTED_EDGE ( 'NONE', *, *, #169, .T. ) ;
#77 = EDGE_CURVE ( 'NONE', #163, #95, #59, .T. ) ;
#78 = DIRECTION ( 'NONE',  ( 0.0000000000000000000, -2.600988039916567400E-020, -1.000000000000000000 ) ) ;
#79 = EDGE_LOOP ( 'NONE', ( #126, #112, #209, #121 ) ) ;
#80 = DIRECTION ( 'NONE',  ( 0.0000000000000000000, -2.600988039916568000E-020, -1.000000000000000000 ) ) ;
#81 = EDGE_LOOP ( 'NONE', ( #147, #211, #89 ) ) ;
#82 = CARTESIAN_POINT ( 'NONE',  ( 0.0000000000000000000, 2.417550820297200800E-017, 929.4740241768852200 ) ) ;
#83 = DIRECTION ( 'NONE',  ( 0.0000000000000000000, -1.000000000000000000, 2.600988039916567400E-020 ) ) ;
#84 = CARTESIAN_POINT ( 'NONE',  ( 0.0000000000000000000, -1.631950000000004000, 4.244682431741852500E-020 ) ) ;
#85 = DIRECTION ( 'NONE',  ( 0.0000000000000000000, -2.600988039916568000E-020, -1.000000000000000000 ) ) ;
#86 = ADVANCED_FACE ( 'NONE', ( #8 ), #74, .T. ) ;
#87 = MANIFOLD_SOLID_BREP ( '¸ðµû±â1', #168 ) ;
#88 = AXIS2_PLACEMENT_3D ( 'NONE', #124, #58, #44 ) ;
#89 = ORIENTED_EDGE ( 'NONE', *, *, #145, .F. ) ;
#90 = ORIENTED_EDGE ( 'NONE', *, *, #159, .F. ) ;
#91 = DIRECTION ( 'NONE',  ( 0.0000000000000000000, -0.9238795325112859600, 0.3826834323650916100 ) ) ;
#92 = PRODUCT_DEFINITION_FORMATION_WITH_SPECIFIED_SOURCE ( 'ANY', '', #135, .NOT_KNOWN. ) ;
#93 = CARTESIAN_POINT ( 'NONE',  ( 0.0000000000000000000, -1.834372196193665100E-018, -70.52597582311477700 ) ) ;
#94 = PRODUCT_DEFINITION_CONTEXT ( 'detailed design', #6, 'design' ) ;
#95 = VERTEX_POINT ( 'NONE', #208 ) ;
#96 = CARTESIAN_POINT ( 'NONE',  ( 0.0000000000000000000, -1.816790145881722300E-018, -69.84999999999999400 ) ) ;
#97 = CIRCLE ( 'NONE', #148, 1.305560000000011400 ) ;
#98 =( GEOMETRIC_REPRESENTATION_CONTEXT ( 3 ) GLOBAL_UNCERTAINTY_ASSIGNED_CONTEXT ( ( #109 ) ) GLOBAL_UNIT_ASSIGNED_CONTEXT ( ( #120, #17, #104 ) ) REPRESENTATION_CONTEXT ( 'NONE', 'WORKASPACE' ) );
#99 = MECHANICAL_DESIGN_GEOMETRIC_PRESENTATION_REPRESENTATION (  '', ( #194 ), #198 ) ;
#100 = ORIENTED_EDGE ( 'NONE', *, *, #60, .T. ) ;
#101 = DIRECTION ( 'NONE',  ( 0.0000000000000000000, 0.0000000000000000000, 1.000000000000000000 ) ) ;
#102 = DIRECTION ( 'NONE',  ( -0.0000000000000000000, 2.600988039916567400E-020, 1.000000000000000000 ) ) ;
#103 = DIRECTION ( 'NONE',  ( 0.0000000000000000000, -1.000000000000000000, 0.0000000000000000000 ) ) ;
#104 =( NAMED_UNIT ( * ) SI_UNIT ( $, .STERADIAN. ) SOLID_ANGLE_UNIT ( ) );
#105 = CONICAL_SURFACE ( 'NONE', #15, 2414.213562373081000, 1.178097245096170400 ) ;
#106 = DIRECTION ( 'NONE',  ( 0.0000000000000000000, -1.000000000000000000, 2.600988039916567400E-020 ) ) ;
#107 = PRESENTATION_STYLE_ASSIGNMENT (( #21 ) ) ;
#108 = FILL_AREA_STYLE ('',( #122 ) ) ;
#109 = UNCERTAINTY_MEASURE_WITH_UNIT (LENGTH_MEASURE( 1.000000000000000100E-005 ), #120, 'distance_accuracy_value', 'NONE');
#110 = CARTESIAN_POINT ( 'NONE',  ( 0.0000000000000000000, -1.834372196193665100E-018, -70.52597582311477700 ) ) ;
#111 = ORIENTED_EDGE ( 'NONE', *, *, #77, .F. ) ;
#112 = ORIENTED_EDGE ( 'NONE', *, *, #20, .T. ) ;
#113 = CARTESIAN_POINT ( 'NONE',  ( 1.998562343868528000E-016, 1.631950000000004000, -0.3263899999999977400 ) ) ;
#114 = ORIENTED_EDGE ( 'NONE', *, *, #131, .T. ) ;
#115 =( NAMED_UNIT ( * ) PLANE_ANGLE_UNIT ( ) SI_UNIT ( $, .RADIAN. ) );
#116 = CARTESIAN_POINT ( 'NONE',  ( 1.598849875094832000E-016, -1.305560000000011400, 9.998329806503880300E-017 ) ) ;
#117 = PRODUCT_CONTEXT ( 'NONE', #173, 'mechanical' ) ;
#118 = CIRCLE ( 'NONE', #7, 1.631950000000004000 ) ;
#119 = ADVANCED_FACE ( 'NONE', ( #207 ), #105, .T. ) ;
#120 =( LENGTH_UNIT ( ) NAMED_UNIT ( * ) SI_UNIT ( .MILLI., .METRE. ) );
#121 = ORIENTED_EDGE ( 'NONE', *, *, #55, .F. ) ;
#122 = FILL_AREA_STYLE_COLOUR ( '', #14 ) ;
#123 = FACE_OUTER_BOUND ( 'NONE', #79, .T. ) ;
#124 = CARTESIAN_POINT ( 'NONE',  ( 0.0000000000000000000, -1.816790145881722300E-018, -69.84999999999999400 ) ) ;
#125 = DIRECTION ( 'NONE',  ( 0.0000000000000000000, 1.000000000000000000, 0.0000000000000000000 ) ) ;
#126 = ORIENTED_EDGE ( 'NONE', *, *, #60, .F. ) ;
#127 = ORIENTED_EDGE ( 'NONE', *, *, #20, .F. ) ;
#128 = DIRECTION ( 'NONE',  ( 0.0000000000000000000, -2.600988039916568000E-020, -1.000000000000000000 ) ) ;
#129 = SURFACE_STYLE_FILL_AREA ( #49 ) ;
#130 = ORIENTED_EDGE ( 'NONE', *, *, #51, .T. ) ;
#131 = EDGE_CURVE ( 'NONE', #163, #151, #212, .T. ) ;
#132 = EDGE_LOOP ( 'NONE', ( #76, #100 ) ) ;
#133 = PLANE ( 'NONE',  #29 ) ;
#134 = CONICAL_SURFACE ( 'NONE', #181, 2414.213562373081000, 1.178097245096170400 ) ;
#135 = PRODUCT ( '03-0313', '03-0313', '', ( #117 ) ) ;
#136 = CARTESIAN_POINT ( 'NONE',  ( 0.0000000000000000000, 0.0000000000000000000, 0.0000000000000000000 ) ) ;
#137 = DIRECTION ( 'NONE',  ( 0.0000000000000000000, 1.000000000000000000, 0.0000000000000000000 ) ) ;
#138 = ORIENTED_EDGE ( 'NONE', *, *, #51, .F. ) ;
#139 =( NAMED_UNIT ( * ) SI_UNIT ( $, .STERADIAN. ) SOLID_ANGLE_UNIT ( ) );
#140 =( GEOMETRIC_REPRESENTATION_CONTEXT ( 3 ) GLOBAL_UNCERTAINTY_ASSIGNED_CONTEXT ( ( #191 ) ) GLOBAL_UNIT_ASSIGNED_CONTEXT ( ( #2, #115, #139 ) ) REPRESENTATION_CONTEXT ( 'NONE', 'WORKASPACE' ) );
#141 = SURFACE_SIDE_STYLE ('',( #129 ) ) ;
#142 = SURFACE_SIDE_STYLE ('',( #158 ) ) ;
#143 =( LENGTH_UNIT ( ) NAMED_UNIT ( * ) SI_UNIT ( .MILLI., .METRE. ) );
#144 = ORIENTED_EDGE ( 'NONE', *, *, #68, .F. ) ;
#145 = EDGE_CURVE ( 'NONE', #151, #95, #167, .T. ) ;
#146 = CONICAL_SURFACE ( 'NONE', #28, 1.305560000000011400, 0.7853981633974402900 ) ;
#147 = ORIENTED_EDGE ( 'NONE', *, *, #131, .F. ) ;
#148 = AXIS2_PLACEMENT_3D ( 'NONE', #171, #187, #174 ) ;
#149 = FACE_OUTER_BOUND ( 'NONE', #81, .T. ) ;
#150 = ADVANCED_BREP_SHAPE_REPRESENTATION ( '03-0313', ( #87, #193 ), #140 ) ;
#151 = VERTEX_POINT ( 'NONE', #182 ) ;
#152 = DIRECTION ( 'NONE',  ( -0.0000000000000000000, 2.600988039916567400E-020, 1.000000000000000000 ) ) ;
#153 = APPLICATION_PROTOCOL_DEFINITION ( 'draft international standard', 'automotive_design', 1998, #173 ) ;
#154 = CARTESIAN_POINT ( 'NONE',  ( 1.798706109481679800E-016, -1.305560000000011400, 9.998329806503880300E-017 ) ) ;
#155 = DIRECTION ( 'NONE',  ( 0.0000000000000000000, 1.000000000000000000, -2.600988039916705200E-020 ) ) ;
#156 = ADVANCED_FACE ( 'NONE', ( #19 ), #146, .T. ) ;
#157 = DIRECTION ( 'NONE',  ( 0.0000000000000000000, -2.600988039916568000E-020, -1.000000000000000000 ) ) ;
#158 = SURFACE_STYLE_FILL_AREA ( #108 ) ;
#159 = EDGE_CURVE ( 'NONE', #95, #151, #53, .T. ) ;
#160 = LINE ( 'NONE', #190, #57 ) ;
#161 = AXIS2_PLACEMENT_3D ( 'NONE', #67, #48, #83 ) ;
#162 = AXIS2_PLACEMENT_3D ( 'NONE', #96, #37, #40 ) ;
#163 = VERTEX_POINT ( 'NONE', #93 ) ;
#164 = DIRECTION ( 'NONE',  ( 0.0000000000000000000, 1.000000000000000000, -2.600988039916705200E-020 ) ) ;
#165 = PRODUCT_RELATED_PRODUCT_CATEGORY ( 'part', '', ( #135 ) ) ;
#166 = ORIENTED_EDGE ( 'NONE', *, *, #189, .F. ) ;
#167 = CIRCLE ( 'NONE', #162, 1.631950000000008200 ) ;
#168 = CLOSED_SHELL ( 'NONE', ( #188, #202, #119, #13, #205, #86, #156 ) ) ;
#169 = EDGE_CURVE ( 'NONE', #200, #186, #97, .T. ) ;
#170 = CARTESIAN_POINT ( 'NONE',  ( 0.0000000000000000000, 1.305560000000011400, 9.991538314613093100E-017 ) ) ;
#171 = CARTESIAN_POINT ( 'NONE',  ( 0.0000000000000000000, 2.599670395126736300E-036, 9.994934060558487300E-017 ) ) ;
#172 = ORIENTED_EDGE ( 'NONE', *, *, #189, .T. ) ;
#173 = APPLICATION_CONTEXT ( 'automotive_design' ) ;
#174 = DIRECTION ( 'NONE',  ( 0.0000000000000000000, 1.000000000000000000, -2.600988039916705200E-020 ) ) ;
#175 = LINE ( 'NONE', #116, #66 ) ;
#176 = CARTESIAN_POINT ( 'NONE',  ( 0.0000000000000000000, 0.0000000000000000000, 0.0000000000000000000 ) ) ;
#177 = EDGE_LOOP ( 'NONE', ( #127, #213, #33, #166 ) ) ;
#178 = LINE ( 'NONE', #54, #42 ) ;
#179 = CARTESIAN_POINT ( 'NONE',  ( 0.0000000000000000000, 2.599670395126735900E-036, 9.994934060558487300E-017 ) ) ;
#180 = CONICAL_SURFACE ( 'NONE', #41, 1.305560000000011400, 0.7853981633974402900 ) ;
#181 = AXIS2_PLACEMENT_3D ( 'NONE', #82, #152, #103 ) ;
#182 = CARTESIAN_POINT ( 'NONE',  ( 1.998562343868533500E-016, 1.631950000000008700, -69.84999999999999400 ) ) ;
#183 = FACE_OUTER_BOUND ( 'NONE', #39, .T. ) ;
#184 = AXIS2_PLACEMENT_3D ( 'NONE', #176, #206, #106 ) ;
#185 = DIRECTION ( 'NONE',  ( 0.0000000000000000000, 1.000000000000000000, -2.600988039916567400E-020 ) ) ;
#186 = VERTEX_POINT ( 'NONE', #154 ) ;
#187 = DIRECTION ( 'NONE',  ( -0.0000000000000000000, 2.600988039916567400E-020, 1.000000000000000000 ) ) ;
#188 = ADVANCED_FACE ( 'NONE', ( #123 ), #180, .T. ) ;
#189 = EDGE_CURVE ( 'NONE', #45, #27, #210, .T. ) ;
#190 = CARTESIAN_POINT ( 'NONE',  ( 0.0000000000000000000, 1.305560000000011400, 9.991538314613093100E-017 ) ) ;
#191 = UNCERTAINTY_MEASURE_WITH_UNIT (LENGTH_MEASURE( 1.000000000000000100E-005 ), #2, 'distance_accuracy_value', 'NONE');
#192 = DIRECTION ( 'NONE',  ( -0.0000000000000000000, 2.600988039916567400E-020, 1.000000000000000000 ) ) ;
#193 = AXIS2_PLACEMENT_3D ( 'NONE', #136, #101, #64 ) ;
#194 = STYLED_ITEM ( 'NONE', ( #107 ), #87 ) ;
#195 = EDGE_LOOP ( 'NONE', ( #144, #70, #130, #172 ) ) ;
#196 = CARTESIAN_POINT ( 'NONE',  ( 0.0000000000000000000, -1.631950000000004000, -0.3263899999999977400 ) ) ;
#197 = AXIS2_PLACEMENT_3D ( 'NONE', #203, #10, #155 ) ;
#198 =( GEOMETRIC_REPRESENTATION_CONTEXT ( 3 ) GLOBAL_UNCERTAINTY_ASSIGNED_CONTEXT ( ( #46 ) ) GLOBAL_UNIT_ASSIGNED_CONTEXT ( ( #143, #71, #24 ) ) REPRESENTATION_CONTEXT ( 'NONE', 'WORKASPACE' ) );
#199 = CARTESIAN_POINT ( 'NONE',  ( 0.0000000000000000000, -8.489364863483625900E-021, -0.3263899999999977400 ) ) ;
#200 = VERTEX_POINT ( 'NONE', #170 ) ;
#201 = SURFACE_STYLE_USAGE ( .BOTH. , #141 ) ;
#202 = ADVANCED_FACE ( 'NONE', ( #183 ), #34, .T. ) ;
#203 = CARTESIAN_POINT ( 'NONE',  ( 0.0000000000000000000, 2.599670395126736300E-036, 9.994934060558487300E-017 ) ) ;
#204 = PRESENTATION_LAYER_ASSIGNMENT (  '', '', ( #194 ) ) ;
#205 = ADVANCED_FACE ( 'NONE', ( #149 ), #134, .T. ) ;
#206 = DIRECTION ( 'NONE',  ( -0.0000000000000000000, 2.600988039916567400E-020, 1.000000000000000000 ) ) ;
#207 = FACE_OUTER_BOUND ( 'NONE', #36, .T. ) ;
#208 = CARTESIAN_POINT ( 'NONE',  ( 0.0000000000000000000, -1.631950000000008700, -69.84999999999999400 ) ) ;
#209 = ORIENTED_EDGE ( 'NONE', *, *, #75, .F. ) ;
#210 = CIRCLE ( 'NONE', #38, 1.631950000000004000 ) ;
#211 = ORIENTED_EDGE ( 'NONE', *, *, #77, .T. ) ;
#212 = LINE ( 'NONE', #110, #214 ) ;
#213 = ORIENTED_EDGE ( 'NONE', *, *, #169, .F. ) ;
#214 = VECTOR ( 'NONE', #43, 1000.000000000000100 ) ;
ENDSEC;
END-ISO-10303-21;
