ISO-10303-21;
HEADER;
FILE_DESCRIPTION (( 'STEP AP214' ),
    '1' );
FILE_NAME ('03-0314.STEP',
    '2020-07-23T06:39:00',
    ( '' ),
    ( '' ),
    'SwSTEP 2.0',
    'SolidWorks 2014',
    '' );
FILE_SCHEMA (( 'AUTOMOTIVE_DESIGN' ));
ENDSEC;

DATA;
#1 = FILL_AREA_STYLE_COLOUR ( '', #128 ) ;
#2 = FACE_OUTER_BOUND ( 'NONE', #189, .T. ) ;
#3 = DIRECTION ( 'NONE',  ( 0.0000000000000000000, -1.000000000000000000, 0.0000000000000000000 ) ) ;
#4 = SURFACE_STYLE_FILL_AREA ( #196 ) ;
#5 = EDGE_CURVE ( 'NONE', #6, #29, #124, .T. ) ;
#6 = VERTEX_POINT ( 'NONE', #49 ) ;
#7 = DIRECTION ( 'NONE',  ( 0.0000000000000000000, 0.7071067811865489100, -0.7071067811865462400 ) ) ;
#8 = CARTESIAN_POINT ( 'NONE',  ( 0.0000000000000000000, -3.192501189920268600E-018, -69.84999999999999400 ) ) ;
#9 = UNCERTAINTY_MEASURE_WITH_UNIT (LENGTH_MEASURE( 1.000000000000000100E-005 ), #166, 'distance_accuracy_value', 'NONE');
#10 = CIRCLE ( 'NONE', #96, 1.524000000000003800 ) ;
#11 = AXIS2_PLACEMENT_3D ( 'NONE', #67, #201, #183 ) ;
#12 = CONICAL_SURFACE ( 'NONE', #152, 2414.213562373069200, 1.178097245096168600 ) ;
#13 = CONICAL_SURFACE ( 'NONE', #19, 1.219199999999996700, 0.7853981633974501700 ) ;
#14 = ADVANCED_FACE ( 'NONE', ( #2 ), #75, .T. ) ;
#15 = ORIENTED_EDGE ( 'NONE', *, *, #190, .T. ) ;
#16 = AXIS2_PLACEMENT_3D ( 'NONE', #8, #57, #24 ) ;
#17 =( NAMED_UNIT ( * ) SI_UNIT ( $, .STERADIAN. ) SOLID_ANGLE_UNIT ( ) );
#18 = CARTESIAN_POINT ( 'NONE',  ( 4.606609261280993000E-050, -3.221353058082244800E-018, -70.48126146905660500 ) ) ;
#19 = AXIS2_PLACEMENT_3D ( 'NONE', #119, #55, #89 ) ;
#20 = CARTESIAN_POINT ( 'NONE',  ( 0.0000000000000000000, 4.266704181109880800E-036, 9.335291338073653600E-017 ) ) ;
#21 = AXIS2_PLACEMENT_3D ( 'NONE', #20, #143, #22 ) ;
#22 = DIRECTION ( 'NONE',  ( 0.0000000000000000000, 1.000000000000000000, -4.570509935462357900E-020 ) ) ;
#23 = FILL_AREA_STYLE_COLOUR ( '', #62 ) ;
#24 = DIRECTION ( 'NONE',  ( 0.0000000000000000000, -1.000000000000000000, 0.0000000000000000000 ) ) ;
#25 = UNCERTAINTY_MEASURE_WITH_UNIT (LENGTH_MEASURE( 1.000000000000000100E-005 ), #31, 'distance_accuracy_value', 'NONE');
#26 = SURFACE_STYLE_FILL_AREA ( #146 ) ;
#27 = ADVANCED_FACE ( 'NONE', ( #187 ), #12, .T. ) ;
#28 = STYLED_ITEM ( 'NONE', ( #110 ), #61 ) ;
#29 = VERTEX_POINT ( 'NONE', #198 ) ;
#30 =( GEOMETRIC_REPRESENTATION_CONTEXT ( 3 ) GLOBAL_UNCERTAINTY_ASSIGNED_CONTEXT ( ( #25 ) ) GLOBAL_UNIT_ASSIGNED_CONTEXT ( ( #31, #126, #17 ) ) REPRESENTATION_CONTEXT ( 'NONE', 'WORKASPACE' ) );
#31 =( LENGTH_UNIT ( ) NAMED_UNIT ( * ) SI_UNIT ( .MILLI., .METRE. ) );
#32 = CIRCLE ( 'NONE', #112, 1.524000000000008000 ) ;
#33 = ORIENTED_EDGE ( 'NONE', *, *, #197, .T. ) ;
#34 = EDGE_CURVE ( 'NONE', #6, #104, #122, .T. ) ;
#35 = APPLICATION_CONTEXT ( 'automotive_design' ) ;
#36 = EDGE_LOOP ( 'NONE', ( #213, #77, #46, #44 ) ) ;
#37 = CARTESIAN_POINT ( 'NONE',  ( 0.0000000000000000000, -1.524000000000003800, 6.965457141644240300E-020 ) ) ;
#38 = DIRECTION ( 'NONE',  ( -0.0000000000000000000, 4.570509935462088900E-020, 1.000000000000000000 ) ) ;
#39 = CARTESIAN_POINT ( 'NONE',  ( 0.0000000000000000000, -1.524000000000003800, -0.3048000000000060100 ) ) ;
#40 = PRESENTATION_LAYER_ASSIGNMENT (  '', '', ( #28 ) ) ;
#41 = DIRECTION ( 'NONE',  ( 0.0000000000000000000, -1.000000000000000000, 0.0000000000000000000 ) ) ;
#42 = DIRECTION ( 'NONE',  ( 0.0000000000000000000, 1.000000000000000000, 0.0000000000000000000 ) ) ;
#43 = VECTOR ( 'NONE', #103, 1000.000000000000000 ) ;
#44 = ORIENTED_EDGE ( 'NONE', *, *, #193, .F. ) ;
#45 = EDGE_CURVE ( 'NONE', #29, #6, #174, .T. ) ;
#46 = ORIENTED_EDGE ( 'NONE', *, *, #94, .F. ) ;
#47 = EDGE_LOOP ( 'NONE', ( #121, #73, #90 ) ) ;
#48 = PRODUCT_DEFINITION_SHAPE ( 'NONE', 'NONE',  #154 ) ;
#49 = CARTESIAN_POINT ( 'NONE',  ( 1.679725549710510000E-016, -1.219199999999996700, 9.340863703786968600E-017 ) ) ;
#50 =( NAMED_UNIT ( * ) PLANE_ANGLE_UNIT ( ) SI_UNIT ( $, .RADIAN. ) );
#51 =( GEOMETRIC_REPRESENTATION_CONTEXT ( 3 ) GLOBAL_UNCERTAINTY_ASSIGNED_CONTEXT ( ( #102 ) ) GLOBAL_UNIT_ASSIGNED_CONTEXT ( ( #206, #150, #87 ) ) REPRESENTATION_CONTEXT ( 'NONE', 'WORKASPACE' ) );
#52 = CARTESIAN_POINT ( 'NONE',  ( 1.866361721900571000E-016, 1.524000000000003800, -6.965457141644240300E-020 ) ) ;
#53 = FACE_OUTER_BOUND ( 'NONE', #92, .T. ) ;
#54 = EDGE_LOOP ( 'NONE', ( #208, #111 ) ) ;
#55 = DIRECTION ( 'NONE',  ( 0.0000000000000000000, -4.570509935462088300E-020, -1.000000000000000000 ) ) ;
#56 = DIRECTION ( 'NONE',  ( -0.0000000000000000000, 4.570509935462088900E-020, 1.000000000000000000 ) ) ;
#57 = DIRECTION ( 'NONE',  ( -0.0000000000000000000, 4.570509935462088900E-020, 1.000000000000000000 ) ) ;
#58 = ORIENTED_EDGE ( 'NONE', *, *, #85, .T. ) ;
#59 = AXIS2_PLACEMENT_3D ( 'NONE', #135, #117, #42 ) ;
#60 = FACE_OUTER_BOUND ( 'NONE', #47, .T. ) ;
#61 = ADVANCED_BREP_SHAPE_REPRESENTATION ( '03-0314', ( #131, #142 ), #30 ) ;
#62 = COLOUR_RGB ( '',0.7921568627450980000, 0.8196078431372548800, 0.9333333333333333500 ) ;
#63 = AXIS2_PLACEMENT_3D ( 'NONE', #137, #170, #203 ) ;
#64 = ORIENTED_EDGE ( 'NONE', *, *, #85, .F. ) ;
#65 = LINE ( 'NONE', #88, #69 ) ;
#66 = EDGE_CURVE ( 'NONE', #118, #125, #140, .T. ) ;
#67 = CARTESIAN_POINT ( 'NONE',  ( 0.0000000000000000000, 1.523999999999999800, 9.328325880932008600E-017 ) ) ;
#68 = DIRECTION ( 'NONE',  ( 0.0000000000000000000, -1.000000000000000000, 4.570509935462088300E-020 ) ) ;
#69 = VECTOR ( 'NONE', #7, 999.9999999999998900 ) ;
#70 = CLOSED_SHELL ( 'NONE', ( #177, #14, #27, #109, #176, #138, #210 ) ) ;
#71 = CARTESIAN_POINT ( 'NONE',  ( 0.0000000000000000000, 4.248374629653864500E-017, 929.5187385309433200 ) ) ;
#72 = DIRECTION ( 'NONE',  ( 0.0000000000000000000, 1.000000000000000000, -4.570509935462357900E-020 ) ) ;
#73 = ORIENTED_EDGE ( 'NONE', *, *, #66, .T. ) ;
#74 = SURFACE_SIDE_STYLE ('',( #26 ) ) ;
#75 = CYLINDRICAL_SURFACE ( 'NONE', #212, 1.524000000000003800 ) ;
#76 = EDGE_CURVE ( 'NONE', #125, #104, #93, .T. ) ;
#77 = ORIENTED_EDGE ( 'NONE', *, *, #34, .T. ) ;
#78 = PRODUCT_DEFINITION_CONTEXT ( 'detailed design', #115, 'design' ) ;
#79 = EDGE_CURVE ( 'NONE', #118, #141, #163, .T. ) ;
#80 = APPLICATION_PROTOCOL_DEFINITION ( 'draft international standard', 'automotive_design', 1998, #115 ) ;
#81 = DIRECTION ( 'NONE',  ( 0.0000000000000000000, -4.570509935462088300E-020, -1.000000000000000000 ) ) ;
#82 = FACE_OUTER_BOUND ( 'NONE', #54, .T. ) ;
#83 = ORIENTED_EDGE ( 'NONE', *, *, #197, .F. ) ;
#84 = DIRECTION ( 'NONE',  ( 8.659560562354950100E-017, -0.7071067811865489100, -0.7071067811865462400 ) ) ;
#85 = EDGE_CURVE ( 'NONE', #141, #204, #98, .T. ) ;
#86 = CARTESIAN_POINT ( 'NONE',  ( 0.0000000000000000000, -1.393091428328872100E-020, -0.3048000000000060100 ) ) ;
#87 =( NAMED_UNIT ( * ) SI_UNIT ( $, .STERADIAN. ) SOLID_ANGLE_UNIT ( ) );
#88 = CARTESIAN_POINT ( 'NONE',  ( 0.0000000000000000000, 1.219199999999996700, 9.329718972360337400E-017 ) ) ;
#89 = DIRECTION ( 'NONE',  ( 0.0000000000000000000, 1.000000000000000000, -4.570509935462357900E-020 ) ) ;
#90 = ORIENTED_EDGE ( 'NONE', *, *, #190, .F. ) ;
#91 = FACE_OUTER_BOUND ( 'NONE', #36, .T. ) ;
#92 = EDGE_LOOP ( 'NONE', ( #64, #15, #194, #33 ) ) ;
#93 = LINE ( 'NONE', #37, #207 ) ;
#94 = EDGE_CURVE ( 'NONE', #204, #104, #10, .T. ) ;
#95 = EDGE_LOOP ( 'NONE', ( #200, #192, #182 ) ) ;
#96 = AXIS2_PLACEMENT_3D ( 'NONE', #86, #81, #132 ) ;
#97 = DIRECTION ( 'NONE',  ( -0.0000000000000000000, 4.570509935462088900E-020, 1.000000000000000000 ) ) ;
#98 = LINE ( 'NONE', #52, #153 ) ;
#99 = DIRECTION ( 'NONE',  ( -0.0000000000000000000, 4.570509935462088900E-020, 1.000000000000000000 ) ) ;
#100 = DIRECTION ( 'NONE',  ( 0.0000000000000000000, 0.0000000000000000000, 1.000000000000000000 ) ) ;
#101 = PLANE ( 'NONE',  #11 ) ;
#102 = UNCERTAINTY_MEASURE_WITH_UNIT (LENGTH_MEASURE( 1.000000000000000100E-005 ), #206, 'distance_accuracy_value', 'NONE');
#103 = DIRECTION ( 'NONE',  ( 1.131426112287698500E-016, 0.9238795325112853000, 0.3826834323650932800 ) ) ;
#104 = VERTEX_POINT ( 'NONE', #39 ) ;
#105 = PRESENTATION_LAYER_ASSIGNMENT (  '', '', ( #161 ) ) ;
#106 = CARTESIAN_POINT ( 'NONE',  ( 1.866361721900576500E-016, 1.524000000000008500, -69.84999999999999400 ) ) ;
#107 = EDGE_LOOP ( 'NONE', ( #158, #180, #175, #83 ) ) ;
#108 = AXIS2_PLACEMENT_3D ( 'NONE', #188, #56, #41 ) ;
#109 = ADVANCED_FACE ( 'NONE', ( #82 ), #101, .F. ) ;
#110 = PRESENTATION_STYLE_ASSIGNMENT (( #147 ) ) ;
#111 = ORIENTED_EDGE ( 'NONE', *, *, #5, .T. ) ;
#112 = AXIS2_PLACEMENT_3D ( 'NONE', #159, #97, #162 ) ;
#113 = DIRECTION ( 'NONE',  ( 0.0000000000000000000, -0.9238795325112853000, 0.3826834323650932800 ) ) ;
#114 = CYLINDRICAL_SURFACE ( 'NONE', #63, 1.524000000000003800 ) ;
#115 = APPLICATION_CONTEXT ( 'automotive_design' ) ;
#116 = MECHANICAL_DESIGN_GEOMETRIC_PRESENTATION_REPRESENTATION (  '', ( #28 ), #148 ) ;
#117 = DIRECTION ( 'NONE',  ( 0.0000000000000000000, -4.570509935462088300E-020, -1.000000000000000000 ) ) ;
#118 = VERTEX_POINT ( 'NONE', #145 ) ;
#119 = CARTESIAN_POINT ( 'NONE',  ( 0.0000000000000000000, 4.266704181109881500E-036, 9.335291338073653600E-017 ) ) ;
#120 = CIRCLE ( 'NONE', #16, 1.524000000000008000 ) ;
#121 = ORIENTED_EDGE ( 'NONE', *, *, #79, .F. ) ;
#122 = LINE ( 'NONE', #202, #211 ) ;
#123 = AXIS2_PLACEMENT_3D ( 'NONE', #133, #99, #167 ) ;
#124 = CIRCLE ( 'NONE', #123, 1.219199999999996700 ) ;
#125 = VERTEX_POINT ( 'NONE', #134 ) ;
#126 =( NAMED_UNIT ( * ) PLANE_ANGLE_UNIT ( ) SI_UNIT ( $, .RADIAN. ) );
#127 = CARTESIAN_POINT ( 'NONE',  ( 0.0000000000000000000, -3.221353058082245600E-018, -70.48126146905660500 ) ) ;
#128 = COLOUR_RGB ( '',0.7921568627450980000, 0.8196078431372548800, 0.9333333333333333500 ) ;
#129 = ORIENTED_EDGE ( 'NONE', *, *, #76, .F. ) ;
#130 = SURFACE_SIDE_STYLE ('',( #4 ) ) ;
#131 = MANIFOLD_SOLID_BREP ( '¸ðµû±â1', #70 ) ;
#132 = DIRECTION ( 'NONE',  ( 0.0000000000000000000, 1.000000000000000000, 0.0000000000000000000 ) ) ;
#133 = CARTESIAN_POINT ( 'NONE',  ( 0.0000000000000000000, 4.266704181109880800E-036, 9.335291338073653600E-017 ) ) ;
#134 = CARTESIAN_POINT ( 'NONE',  ( 0.0000000000000000000, -1.524000000000008500, -69.84999999999999400 ) ) ;
#135 = CARTESIAN_POINT ( 'NONE',  ( 0.0000000000000000000, -1.393091428328872100E-020, -0.3048000000000060100 ) ) ;
#136 = CARTESIAN_POINT ( 'NONE',  ( 0.0000000000000000000, 0.0000000000000000000, 0.0000000000000000000 ) ) ;
#137 = CARTESIAN_POINT ( 'NONE',  ( 0.0000000000000000000, 0.0000000000000000000, 0.0000000000000000000 ) ) ;
#138 = ADVANCED_FACE ( 'NONE', ( #53 ), #114, .T. ) ;
#139 = ORIENTED_EDGE ( 'NONE', *, *, #94, .T. ) ;
#140 = LINE ( 'NONE', #127, #151 ) ;
#141 = VERTEX_POINT ( 'NONE', #106 ) ;
#142 = AXIS2_PLACEMENT_3D ( 'NONE', #136, #100, #184 ) ;
#143 = DIRECTION ( 'NONE',  ( -0.0000000000000000000, 4.570509935462088900E-020, 1.000000000000000000 ) ) ;
#144 = PRODUCT_CONTEXT ( 'NONE', #35, 'mechanical' ) ;
#145 = CARTESIAN_POINT ( 'NONE',  ( 0.0000000000000000000, -3.221353058082244800E-018, -70.48126146905660500 ) ) ;
#146 = FILL_AREA_STYLE ('',( #1 ) ) ;
#147 = SURFACE_STYLE_USAGE ( .BOTH. , #130 ) ;
#148 =( GEOMETRIC_REPRESENTATION_CONTEXT ( 3 ) GLOBAL_UNCERTAINTY_ASSIGNED_CONTEXT ( ( #9 ) ) GLOBAL_UNIT_ASSIGNED_CONTEXT ( ( #166, #50, #168 ) ) REPRESENTATION_CONTEXT ( 'NONE', 'WORKASPACE' ) );
#149 = DIRECTION ( 'NONE',  ( 0.0000000000000000000, -4.570509935462088300E-020, -1.000000000000000000 ) ) ;
#150 =( NAMED_UNIT ( * ) PLANE_ANGLE_UNIT ( ) SI_UNIT ( $, .RADIAN. ) );
#151 = VECTOR ( 'NONE', #113, 1000.000000000000000 ) ;
#152 = AXIS2_PLACEMENT_3D ( 'NONE', #71, #38, #3 ) ;
#153 = VECTOR ( 'NONE', #186, 1000.000000000000000 ) ;
#154 = PRODUCT_DEFINITION ( 'UNKNOWN', '', #171, #78 ) ;
#155 = CONICAL_SURFACE ( 'NONE', #178, 1.219199999999996700, 0.7853981633974501700 ) ;
#156 = ORIENTED_EDGE ( 'NONE', *, *, #209, .T. ) ;
#157 = MECHANICAL_DESIGN_GEOMETRIC_PRESENTATION_REPRESENTATION (  '', ( #161 ), #51 ) ;
#158 = ORIENTED_EDGE ( 'NONE', *, *, #34, .F. ) ;
#159 = CARTESIAN_POINT ( 'NONE',  ( 0.0000000000000000000, -3.192501189920268600E-018, -69.84999999999999400 ) ) ;
#160 = CARTESIAN_POINT ( 'NONE',  ( 0.0000000000000000000, 0.0000000000000000000, 0.0000000000000000000 ) ) ;
#161 = STYLED_ITEM ( 'NONE', ( #191 ), #131 ) ;
#162 = DIRECTION ( 'NONE',  ( 0.0000000000000000000, -1.000000000000000000, 0.0000000000000000000 ) ) ;
#163 = LINE ( 'NONE', #18, #43 ) ;
#164 = DIRECTION ( 'NONE',  ( -0.0000000000000000000, 4.570509935462088900E-020, 1.000000000000000000 ) ) ;
#165 = PRODUCT ( '03-0314', '03-0314', '', ( #144 ) ) ;
#166 =( LENGTH_UNIT ( ) NAMED_UNIT ( * ) SI_UNIT ( .MILLI., .METRE. ) );
#167 = DIRECTION ( 'NONE',  ( 0.0000000000000000000, 1.000000000000000000, -4.570509935462357900E-020 ) ) ;
#168 =( NAMED_UNIT ( * ) SI_UNIT ( $, .STERADIAN. ) SOLID_ANGLE_UNIT ( ) );
#169 = CARTESIAN_POINT ( 'NONE',  ( 0.0000000000000000000, 4.266704181109881500E-036, 9.335291338073653600E-017 ) ) ;
#170 = DIRECTION ( 'NONE',  ( -0.0000000000000000000, 4.570509935462088900E-020, 1.000000000000000000 ) ) ;
#171 = PRODUCT_DEFINITION_FORMATION_WITH_SPECIFIED_SOURCE ( 'ANY', '', #165, .NOT_KNOWN. ) ;
#172 = SURFACE_STYLE_USAGE ( .BOTH. , #74 ) ;
#173 = CARTESIAN_POINT ( 'NONE',  ( 1.866361721900571000E-016, 1.524000000000003800, -0.3048000000000060100 ) ) ;
#174 = CIRCLE ( 'NONE', #21, 1.219199999999996700 ) ;
#175 = ORIENTED_EDGE ( 'NONE', *, *, #193, .T. ) ;
#176 = ADVANCED_FACE ( 'NONE', ( #60 ), #181, .T. ) ;
#177 = ADVANCED_FACE ( 'NONE', ( #91 ), #155, .T. ) ;
#178 = AXIS2_PLACEMENT_3D ( 'NONE', #169, #149, #72 ) ;
#179 = CIRCLE ( 'NONE', #59, 1.524000000000003800 ) ;
#180 = ORIENTED_EDGE ( 'NONE', *, *, #45, .F. ) ;
#181 = CONICAL_SURFACE ( 'NONE', #108, 2414.213562373069200, 1.178097245096168600 ) ;
#182 = ORIENTED_EDGE ( 'NONE', *, *, #209, .F. ) ;
#183 = DIRECTION ( 'NONE',  ( 0.0000000000000000000, 1.000000000000000000, -4.570509935462088900E-020 ) ) ;
#184 = DIRECTION ( 'NONE',  ( 1.000000000000000000, 0.0000000000000000000, 0.0000000000000000000 ) ) ;
#185 = FACE_OUTER_BOUND ( 'NONE', #107, .T. ) ;
#186 = DIRECTION ( 'NONE',  ( -0.0000000000000000000, 4.570509935462088900E-020, 1.000000000000000000 ) ) ;
#187 = FACE_OUTER_BOUND ( 'NONE', #95, .T. ) ;
#188 = CARTESIAN_POINT ( 'NONE',  ( 0.0000000000000000000, 4.248374629653864500E-017, 929.5187385309433200 ) ) ;
#189 = EDGE_LOOP ( 'NONE', ( #156, #58, #139, #129 ) ) ;
#190 = EDGE_CURVE ( 'NONE', #141, #125, #120, .T. ) ;
#191 = PRESENTATION_STYLE_ASSIGNMENT (( #172 ) ) ;
#192 = ORIENTED_EDGE ( 'NONE', *, *, #79, .T. ) ;
#193 = EDGE_CURVE ( 'NONE', #29, #204, #65, .T. ) ;
#194 = ORIENTED_EDGE ( 'NONE', *, *, #76, .T. ) ;
#195 = APPLICATION_PROTOCOL_DEFINITION ( 'draft international standard', 'automotive_design', 1998, #35 ) ;
#196 = FILL_AREA_STYLE ('',( #23 ) ) ;
#197 = EDGE_CURVE ( 'NONE', #104, #204, #179, .T. ) ;
#198 = CARTESIAN_POINT ( 'NONE',  ( 0.0000000000000000000, 1.219199999999996700, 9.329718972360337400E-017 ) ) ;
#199 = DIRECTION ( 'NONE',  ( -0.0000000000000000000, 4.570509935462088900E-020, 1.000000000000000000 ) ) ;
#200 = ORIENTED_EDGE ( 'NONE', *, *, #66, .F. ) ;
#201 = DIRECTION ( 'NONE',  ( 0.0000000000000000000, -4.570509935462088900E-020, -1.000000000000000000 ) ) ;
#202 = CARTESIAN_POINT ( 'NONE',  ( 1.493089377520449000E-016, -1.219199999999996700, 9.340863703786968600E-017 ) ) ;
#203 = DIRECTION ( 'NONE',  ( 0.0000000000000000000, -1.000000000000000000, 4.570509935462088300E-020 ) ) ;
#204 = VERTEX_POINT ( 'NONE', #173 ) ;
#205 = PRODUCT_RELATED_PRODUCT_CATEGORY ( 'part', '', ( #165 ) ) ;
#206 =( LENGTH_UNIT ( ) NAMED_UNIT ( * ) SI_UNIT ( .MILLI., .METRE. ) );
#207 = VECTOR ( 'NONE', #199, 1000.000000000000000 ) ;
#208 = ORIENTED_EDGE ( 'NONE', *, *, #45, .T. ) ;
#209 = EDGE_CURVE ( 'NONE', #125, #141, #32, .T. ) ;
#210 = ADVANCED_FACE ( 'NONE', ( #185 ), #13, .T. ) ;
#211 = VECTOR ( 'NONE', #84, 999.9999999999998900 ) ;
#212 = AXIS2_PLACEMENT_3D ( 'NONE', #160, #164, #68 ) ;
#213 = ORIENTED_EDGE ( 'NONE', *, *, #5, .F. ) ;
#214 = SHAPE_DEFINITION_REPRESENTATION ( #48, #61 ) ;
ENDSEC;
END-ISO-10303-21;
