ISO-10303-21;
HEADER;
FILE_DESCRIPTION (( 'STEP AP214' ),
    '1' );
FILE_NAME ('03-0316.STEP',
    '2020-07-23T06:40:21',
    ( '' ),
    ( '' ),
    'SwSTEP 2.0',
    'SolidWorks 2014',
    '' );
FILE_SCHEMA (( 'AUTOMOTIVE_DESIGN' ));
ENDSEC;

DATA;
#1 = ORIENTED_EDGE ( 'NONE', *, *, #151, .T. ) ;
#2 = DIRECTION ( 'NONE',  ( 0.0000000000000000000, 3.524294441294950100E-020, -1.000000000000000000 ) ) ;
#3 = DIRECTION ( 'NONE',  ( 0.0000000000000000000, 1.000000000000000000, 0.0000000000000000000 ) ) ;
#4 = PRODUCT ( '03-0316', '03-0316', '', ( #134 ) ) ;
#5 = CLOSED_SHELL ( 'NONE', ( #209, #110, #195, #91, #167, #60, #39 ) ) ;
#6 = CARTESIAN_POINT ( 'NONE',  ( 1.581741559310742700E-016, -1.148080000000016600, 8.780878077843318800E-017 ) ) ;
#7 = VERTEX_POINT ( 'NONE', #140 ) ;
#8 = DIRECTION ( 'NONE',  ( 0.0000000000000000000, 1.000000000000000000, 3.524294441294950700E-020 ) ) ;
#9 = ORIENTED_EDGE ( 'NONE', *, *, #128, .T. ) ;
#10 = DIRECTION ( 'NONE',  ( 8.659560562354840400E-017, -0.7071067811865400200, -0.7071067811865550100 ) ) ;
#11 = MECHANICAL_DESIGN_GEOMETRIC_PRESENTATION_REPRESENTATION (  '', ( #160 ), #155 ) ;
#12 = APPLICATION_PROTOCOL_DEFINITION ( 'draft international standard', 'automotive_design', 1998, #25 ) ;
#13 = EDGE_LOOP ( 'NONE', ( #136, #16, #89 ) ) ;
#14 = CYLINDRICAL_SURFACE ( 'NONE', #143, 1.435100000000004300 ) ;
#15 = AXIS2_PLACEMENT_3D ( 'NONE', #132, #24, #27 ) ;
#16 = ORIENTED_EDGE ( 'NONE', *, *, #26, .T. ) ;
#17 = EDGE_LOOP ( 'NONE', ( #191, #54, #139, #144 ) ) ;
#18 = AXIS2_PLACEMENT_3D ( 'NONE', #49, #149, #129 ) ;
#19 = CARTESIAN_POINT ( 'NONE',  ( 0.0000000000000000000, 2.349823318733408500E-018, -66.67499999999999700 ) ) ;
#20 = FACE_OUTER_BOUND ( 'NONE', #73, .T. ) ;
#21 = AXIS2_PLACEMENT_3D ( 'NONE', #63, #43, #148 ) ;
#22 = CONICAL_SURFACE ( 'NONE', #97, 1.148080000000016600, 0.7853981633974377300 ) ;
#23 = ORIENTED_EDGE ( 'NONE', *, *, #53, .F. ) ;
#24 = DIRECTION ( 'NONE',  ( -0.0000000000000000000, -3.524294441294950700E-020, 1.000000000000000000 ) ) ;
#25 = APPLICATION_CONTEXT ( 'automotive_design' ) ;
#26 = EDGE_CURVE ( 'NONE', #35, #117, #31, .T. ) ;
#27 = DIRECTION ( 'NONE',  ( 0.0000000000000000000, -1.000000000000000000, 0.0000000000000000000 ) ) ;
#28 = CONICAL_SURFACE ( 'NONE', #15, 2414.213562373075100, 1.178097245096169500 ) ;
#29 = PRODUCT_DEFINITION_FORMATION_WITH_SPECIFIED_SOURCE ( 'ANY', '', #4, .NOT_KNOWN. ) ;
#30 = LINE ( 'NONE', #36, #104 ) ;
#31 = LINE ( 'NONE', #34, #98 ) ;
#32 = AXIS2_PLACEMENT_3D ( 'NONE', #19, #87, #125 ) ;
#33 = FACE_OUTER_BOUND ( 'NONE', #17, .T. ) ;
#34 = CARTESIAN_POINT ( 'NONE',  ( 0.0000000000000000000, 2.370773060013674000E-018, -67.26943788336163300 ) ) ;
#35 = VERTEX_POINT ( 'NONE', #72 ) ;
#36 = CARTESIAN_POINT ( 'NONE',  ( 0.0000000000000000000, 1.148080000000016600, 8.788970421767642300E-017 ) ) ;
#37 = DIRECTION ( 'NONE',  ( 0.0000000000000000000, 3.524294441294950100E-020, -1.000000000000000000 ) ) ;
#38 = SURFACE_STYLE_USAGE ( .BOTH. , #199 ) ;
#39 = ADVANCED_FACE ( 'NONE', ( #201 ), #22, .T. ) ;
#40 = LINE ( 'NONE', #77, #177 ) ;
#41 = CARTESIAN_POINT ( 'NONE',  ( 1.757490621456371900E-016, 1.435100000000004300, 5.057714952702399000E-020 ) ) ;
#42 = CARTESIAN_POINT ( 'NONE',  ( 1.405992497165113400E-016, -1.148080000000016600, 8.780878077843318800E-017 ) ) ;
#43 = DIRECTION ( 'NONE',  ( 0.0000000000000000000, 3.524294441294950100E-020, -1.000000000000000000 ) ) ;
#44 = AXIS2_PLACEMENT_3D ( 'NONE', #203, #47, #66 ) ;
#45 = VERTEX_POINT ( 'NONE', #75 ) ;
#46 =( LENGTH_UNIT ( ) NAMED_UNIT ( * ) SI_UNIT ( .MILLI., .METRE. ) );
#47 = DIRECTION ( 'NONE',  ( 0.0000000000000000000, 0.0000000000000000000, 1.000000000000000000 ) ) ;
#48 = SHAPE_DEFINITION_REPRESENTATION ( #172, #122 ) ;
#49 = CARTESIAN_POINT ( 'NONE',  ( 0.0000000000000000000, -3.287217135293583600E-017, 932.7305621166384500 ) ) ;
#50 = UNCERTAINTY_MEASURE_WITH_UNIT (LENGTH_MEASURE( 1.000000000000000100E-005 ), #46, 'distance_accuracy_value', 'NONE');
#51 = PRESENTATION_LAYER_ASSIGNMENT (  '', '', ( #210 ) ) ;
#52 = VERTEX_POINT ( 'NONE', #6 ) ;
#53 = EDGE_CURVE ( 'NONE', #117, #7, #175, .T. ) ;
#54 = ORIENTED_EDGE ( 'NONE', *, *, #133, .T. ) ;
#55 = VECTOR ( 'NONE', #164, 1000.000000000000000 ) ;
#56 = CARTESIAN_POINT ( 'NONE',  ( 0.0000000000000000000, -3.096065970078667500E-036, 8.784924249805480600E-017 ) ) ;
#57 = DIRECTION ( 'NONE',  ( -0.0000000000000000000, -3.524294441294950700E-020, 1.000000000000000000 ) ) ;
#58 = ORIENTED_EDGE ( 'NONE', *, *, #101, .F. ) ;
#59 = LINE ( 'NONE', #193, #154 ) ;
#60 = ADVANCED_FACE ( 'NONE', ( #33 ), #116, .T. ) ;
#61 = CARTESIAN_POINT ( 'NONE',  ( 0.0000000000000000000, -1.435100000000004300, -0.2870199999999936100 ) ) ;
#62 = FILL_AREA_STYLE_COLOUR ( '', #202 ) ;
#63 = CARTESIAN_POINT ( 'NONE',  ( 0.0000000000000000000, -3.096065970078667500E-036, 8.784924249805480600E-017 ) ) ;
#64 = EDGE_LOOP ( 'NONE', ( #100, #86 ) ) ;
#65 = APPLICATION_PROTOCOL_DEFINITION ( 'draft international standard', 'automotive_design', 1998, #185 ) ;
#66 = DIRECTION ( 'NONE',  ( 1.000000000000000000, 0.0000000000000000000, 0.0000000000000000000 ) ) ;
#67 = FILL_AREA_STYLE_COLOUR ( '', #95 ) ;
#68 = EDGE_CURVE ( 'NONE', #7, #102, #204, .T. ) ;
#69 = CIRCLE ( 'NONE', #171, 1.435100000000004300 ) ;
#70 = VECTOR ( 'NONE', #10, 1000.000000000000000 ) ;
#71 = EDGE_CURVE ( 'NONE', #102, #94, #157, .T. ) ;
#72 = CARTESIAN_POINT ( 'NONE',  ( 0.0000000000000000000, 2.370773060013674000E-018, -67.26943788336163300 ) ) ;
#73 = EDGE_LOOP ( 'NONE', ( #58, #112, #99, #205 ) ) ;
#74 = FACE_OUTER_BOUND ( 'NONE', #184, .T. ) ;
#75 = CARTESIAN_POINT ( 'NONE',  ( 0.0000000000000000000, 1.148080000000016600, 8.788970421767642300E-017 ) ) ;
#76 = DIRECTION ( 'NONE',  ( -0.0000000000000000000, -3.524294441294950700E-020, 1.000000000000000000 ) ) ;
#77 = CARTESIAN_POINT ( 'NONE',  ( 0.0000000000000000000, 2.370773060013674000E-018, -67.26943788336163300 ) ) ;
#78 = DIRECTION ( 'NONE',  ( 0.0000000000000000000, 1.000000000000000000, 3.524294441294905000E-020 ) ) ;
#79 =( NAMED_UNIT ( * ) SI_UNIT ( $, .STERADIAN. ) SOLID_ANGLE_UNIT ( ) );
#80 = FILL_AREA_STYLE ('',( #62 ) ) ;
#81 = SURFACE_SIDE_STYLE ('',( #119 ) ) ;
#82 = ORIENTED_EDGE ( 'NONE', *, *, #187, .F. ) ;
#83 =( LENGTH_UNIT ( ) NAMED_UNIT ( * ) SI_UNIT ( .MILLI., .METRE. ) );
#84 =( GEOMETRIC_REPRESENTATION_CONTEXT ( 3 ) GLOBAL_UNCERTAINTY_ASSIGNED_CONTEXT ( ( #189 ) ) GLOBAL_UNIT_ASSIGNED_CONTEXT ( ( #83, #131, #147 ) ) REPRESENTATION_CONTEXT ( 'NONE', 'WORKASPACE' ) );
#85 = EDGE_CURVE ( 'NONE', #52, #94, #212, .T. ) ;
#86 = ORIENTED_EDGE ( 'NONE', *, *, #101, .T. ) ;
#87 = DIRECTION ( 'NONE',  ( -0.0000000000000000000, -3.524294441294950700E-020, 1.000000000000000000 ) ) ;
#88 =( LENGTH_UNIT ( ) NAMED_UNIT ( * ) SI_UNIT ( .MILLI., .METRE. ) );
#89 = ORIENTED_EDGE ( 'NONE', *, *, #133, .F. ) ;
#90 = DIRECTION ( 'NONE',  ( 0.0000000000000000000, 0.7071067811865400200, -0.7071067811865550100 ) ) ;
#91 = ADVANCED_FACE ( 'NONE', ( #213 ), #211, .F. ) ;
#92 = CARTESIAN_POINT ( 'NONE',  ( 0.0000000000000000000, 2.349823318733408500E-018, -66.67499999999999700 ) ) ;
#93 = AXIS2_PLACEMENT_3D ( 'NONE', #198, #37, #165 ) ;
#94 = VERTEX_POINT ( 'NONE', #61 ) ;
#95 = COLOUR_RGB ( '',0.7921568627450980000, 0.8196078431372548800, 0.9333333333333333500 ) ;
#96 = UNCERTAINTY_MEASURE_WITH_UNIT (LENGTH_MEASURE( 1.000000000000000100E-005 ), #88, 'distance_accuracy_value', 'NONE');
#97 = AXIS2_PLACEMENT_3D ( 'NONE', #56, #176, #121 ) ;
#98 = VECTOR ( 'NONE', #190, 1000.000000000000100 ) ;
#99 = ORIENTED_EDGE ( 'NONE', *, *, #71, .F. ) ;
#100 = ORIENTED_EDGE ( 'NONE', *, *, #123, .T. ) ;
#101 = EDGE_CURVE ( 'NONE', #52, #45, #120, .T. ) ;
#102 = VERTEX_POINT ( 'NONE', #141 ) ;
#103 = DIRECTION ( 'NONE',  ( 0.0000000000000000000, -1.000000000000000000, 0.0000000000000000000 ) ) ;
#104 = VECTOR ( 'NONE', #90, 1000.000000000000000 ) ;
#105 = CIRCLE ( 'NONE', #138, 1.148080000000016600 ) ;
#106 = AXIS2_PLACEMENT_3D ( 'NONE', #159, #76, #146 ) ;
#107 = DIRECTION ( 'NONE',  ( 0.0000000000000000000, 3.524294441294950700E-020, -1.000000000000000000 ) ) ;
#108 = PRODUCT_DEFINITION_CONTEXT ( 'detailed design', #185, 'design' ) ;
#109 = CARTESIAN_POINT ( 'NONE',  ( 0.0000000000000000000, -1.435100000000008300, -66.67499999999999700 ) ) ;
#110 = ADVANCED_FACE ( 'NONE', ( #74 ), #14, .T. ) ;
#111 =( NAMED_UNIT ( * ) PLANE_ANGLE_UNIT ( ) SI_UNIT ( $, .RADIAN. ) );
#112 = ORIENTED_EDGE ( 'NONE', *, *, #85, .T. ) ;
#113 =( NAMED_UNIT ( * ) PLANE_ANGLE_UNIT ( ) SI_UNIT ( $, .RADIAN. ) );
#114 = FACE_OUTER_BOUND ( 'NONE', #207, .T. ) ;
#115 = AXIS2_PLACEMENT_3D ( 'NONE', #92, #161, #103 ) ;
#116 = CYLINDRICAL_SURFACE ( 'NONE', #106, 1.435100000000004300 ) ;
#117 = VERTEX_POINT ( 'NONE', #109 ) ;
#118 = EDGE_CURVE ( 'NONE', #117, #94, #59, .T. ) ;
#119 = SURFACE_STYLE_FILL_AREA ( #183 ) ;
#120 = CIRCLE ( 'NONE', #135, 1.148080000000016600 ) ;
#121 = DIRECTION ( 'NONE',  ( 0.0000000000000000000, 1.000000000000000000, 3.524294441294905000E-020 ) ) ;
#122 = ADVANCED_BREP_SHAPE_REPRESENTATION ( '03-0316', ( #126, #44 ), #178 ) ;
#123 = EDGE_CURVE ( 'NONE', #45, #52, #105, .T. ) ;
#124 = EDGE_LOOP ( 'NONE', ( #173, #188, #9, #82 ) ) ;
#125 = DIRECTION ( 'NONE',  ( 0.0000000000000000000, -1.000000000000000000, 0.0000000000000000000 ) ) ;
#126 = MANIFOLD_SOLID_BREP ( '¸ðµû±â1', #5 ) ;
#127 = CARTESIAN_POINT ( 'NONE',  ( 0.0000000000000000000, -3.096065970078666200E-036, 8.784924249805480600E-017 ) ) ;
#128 = EDGE_CURVE ( 'NONE', #45, #102, #30, .T. ) ;
#129 = DIRECTION ( 'NONE',  ( 0.0000000000000000000, -1.000000000000000000, 0.0000000000000000000 ) ) ;
#130 = FACE_OUTER_BOUND ( 'NONE', #13, .T. ) ;
#131 =( NAMED_UNIT ( * ) PLANE_ANGLE_UNIT ( ) SI_UNIT ( $, .RADIAN. ) );
#132 = CARTESIAN_POINT ( 'NONE',  ( 0.0000000000000000000, -3.287217135293583600E-017, 932.7305621166384500 ) ) ;
#133 = EDGE_CURVE ( 'NONE', #7, #117, #142, .T. ) ;
#134 = PRODUCT_CONTEXT ( 'NONE', #25, 'mechanical' ) ;
#135 = AXIS2_PLACEMENT_3D ( 'NONE', #127, #181, #78 ) ;
#136 = ORIENTED_EDGE ( 'NONE', *, *, #151, .F. ) ;
#137 = MECHANICAL_DESIGN_GEOMETRIC_PRESENTATION_REPRESENTATION (  '', ( #210 ), #84 ) ;
#138 = AXIS2_PLACEMENT_3D ( 'NONE', #166, #208, #196 ) ;
#139 = ORIENTED_EDGE ( 'NONE', *, *, #118, .T. ) ;
#140 = CARTESIAN_POINT ( 'NONE',  ( 1.757490621456376600E-016, 1.435100000000008300, -66.67499999999999700 ) ) ;
#141 = CARTESIAN_POINT ( 'NONE',  ( 1.757490621456371900E-016, 1.435100000000004300, -0.2870199999999936100 ) ) ;
#142 = CIRCLE ( 'NONE', #115, 1.435100000000008300 ) ;
#143 = AXIS2_PLACEMENT_3D ( 'NONE', #145, #182, #192 ) ;
#144 = ORIENTED_EDGE ( 'NONE', *, *, #187, .T. ) ;
#145 = CARTESIAN_POINT ( 'NONE',  ( 0.0000000000000000000, 0.0000000000000000000, 0.0000000000000000000 ) ) ;
#146 = DIRECTION ( 'NONE',  ( 0.0000000000000000000, -1.000000000000000000, -3.524294441294950700E-020 ) ) ;
#147 =( NAMED_UNIT ( * ) SI_UNIT ( $, .STERADIAN. ) SOLID_ANGLE_UNIT ( ) );
#148 = DIRECTION ( 'NONE',  ( 0.0000000000000000000, 1.000000000000000000, 3.524294441294905000E-020 ) ) ;
#149 = DIRECTION ( 'NONE',  ( -0.0000000000000000000, -3.524294441294950700E-020, 1.000000000000000000 ) ) ;
#150 = PRESENTATION_STYLE_ASSIGNMENT (( #38 ) ) ;
#151 = EDGE_CURVE ( 'NONE', #35, #7, #40, .T. ) ;
#152 = ORIENTED_EDGE ( 'NONE', *, *, #53, .T. ) ;
#153 = AXIS2_PLACEMENT_3D ( 'NONE', #163, #107, #8 ) ;
#154 = VECTOR ( 'NONE', #57, 1000.000000000000000 ) ;
#155 =( GEOMETRIC_REPRESENTATION_CONTEXT ( 3 ) GLOBAL_UNCERTAINTY_ASSIGNED_CONTEXT ( ( #96 ) ) GLOBAL_UNIT_ASSIGNED_CONTEXT ( ( #88, #111, #79 ) ) REPRESENTATION_CONTEXT ( 'NONE', 'WORKASPACE' ) );
#156 = CONICAL_SURFACE ( 'NONE', #21, 1.148080000000016600, 0.7853981633974377300 ) ;
#157 = CIRCLE ( 'NONE', #93, 1.435100000000004300 ) ;
#158 = ORIENTED_EDGE ( 'NONE', *, *, #68, .T. ) ;
#159 = CARTESIAN_POINT ( 'NONE',  ( 0.0000000000000000000, 0.0000000000000000000, 0.0000000000000000000 ) ) ;
#160 = STYLED_ITEM ( 'NONE', ( #150 ), #126 ) ;
#161 = DIRECTION ( 'NONE',  ( -0.0000000000000000000, -3.524294441294950700E-020, 1.000000000000000000 ) ) ;
#162 = ORIENTED_EDGE ( 'NONE', *, *, #71, .T. ) ;
#163 = CARTESIAN_POINT ( 'NONE',  ( 0.0000000000000000000, 1.435100000000000000, 8.789981964758183000E-017 ) ) ;
#164 = DIRECTION ( 'NONE',  ( -0.0000000000000000000, -3.524294441294950700E-020, 1.000000000000000000 ) ) ;
#165 = DIRECTION ( 'NONE',  ( 0.0000000000000000000, 1.000000000000000000, 0.0000000000000000000 ) ) ;
#166 = CARTESIAN_POINT ( 'NONE',  ( 0.0000000000000000000, -3.096065970078666200E-036, 8.784924249805480600E-017 ) ) ;
#167 = ADVANCED_FACE ( 'NONE', ( #130 ), #180, .T. ) ;
#168 = PRODUCT_DEFINITION ( 'UNKNOWN', '', #29, #108 ) ;
#169 = SURFACE_STYLE_USAGE ( .BOTH. , #81 ) ;
#170 =( NAMED_UNIT ( * ) SI_UNIT ( $, .STERADIAN. ) SOLID_ANGLE_UNIT ( ) );
#171 = AXIS2_PLACEMENT_3D ( 'NONE', #214, #2, #3 ) ;
#172 = PRODUCT_DEFINITION_SHAPE ( 'NONE', 'NONE',  #168 ) ;
#173 = ORIENTED_EDGE ( 'NONE', *, *, #85, .F. ) ;
#174 = PRESENTATION_LAYER_ASSIGNMENT (  '', '', ( #160 ) ) ;
#175 = CIRCLE ( 'NONE', #32, 1.435100000000008300 ) ;
#176 = DIRECTION ( 'NONE',  ( 0.0000000000000000000, 3.524294441294950100E-020, -1.000000000000000000 ) ) ;
#177 = VECTOR ( 'NONE', #179, 1000.000000000000100 ) ;
#178 =( GEOMETRIC_REPRESENTATION_CONTEXT ( 3 ) GLOBAL_UNCERTAINTY_ASSIGNED_CONTEXT ( ( #50 ) ) GLOBAL_UNIT_ASSIGNED_CONTEXT ( ( #46, #113, #170 ) ) REPRESENTATION_CONTEXT ( 'NONE', 'WORKASPACE' ) );
#179 = DIRECTION ( 'NONE',  ( 1.131426112287699000E-016, 0.9238795325112855200, 0.3826834323650925000 ) ) ;
#180 = CONICAL_SURFACE ( 'NONE', #18, 2414.213562373075100, 1.178097245096169500 ) ;
#181 = DIRECTION ( 'NONE',  ( -0.0000000000000000000, -3.524294441294950700E-020, 1.000000000000000000 ) ) ;
#182 = DIRECTION ( 'NONE',  ( -0.0000000000000000000, -3.524294441294950700E-020, 1.000000000000000000 ) ) ;
#183 = FILL_AREA_STYLE ('',( #67 ) ) ;
#184 = EDGE_LOOP ( 'NONE', ( #152, #158, #162, #206 ) ) ;
#185 = APPLICATION_CONTEXT ( 'automotive_design' ) ;
#186 = ORIENTED_EDGE ( 'NONE', *, *, #26, .F. ) ;
#187 = EDGE_CURVE ( 'NONE', #94, #102, #69, .T. ) ;
#188 = ORIENTED_EDGE ( 'NONE', *, *, #123, .F. ) ;
#189 = UNCERTAINTY_MEASURE_WITH_UNIT (LENGTH_MEASURE( 1.000000000000000100E-005 ), #83, 'distance_accuracy_value', 'NONE');
#190 = DIRECTION ( 'NONE',  ( 0.0000000000000000000, -0.9238795325112855200, 0.3826834323650925000 ) ) ;
#191 = ORIENTED_EDGE ( 'NONE', *, *, #68, .F. ) ;
#192 = DIRECTION ( 'NONE',  ( 0.0000000000000000000, -1.000000000000000000, -3.524294441294950700E-020 ) ) ;
#193 = CARTESIAN_POINT ( 'NONE',  ( 0.0000000000000000000, -1.435100000000004300, -5.057714952702399000E-020 ) ) ;
#194 = SURFACE_STYLE_FILL_AREA ( #80 ) ;
#195 = ADVANCED_FACE ( 'NONE', ( #114 ), #28, .T. ) ;
#196 = DIRECTION ( 'NONE',  ( 0.0000000000000000000, 1.000000000000000000, 3.524294441294905000E-020 ) ) ;
#197 = PRESENTATION_STYLE_ASSIGNMENT (( #169 ) ) ;
#198 = CARTESIAN_POINT ( 'NONE',  ( 0.0000000000000000000, 1.011542990540454300E-020, -0.2870199999999936100 ) ) ;
#199 = SURFACE_SIDE_STYLE ('',( #194 ) ) ;
#200 = PRODUCT_RELATED_PRODUCT_CATEGORY ( 'part', '', ( #4 ) ) ;
#201 = FACE_OUTER_BOUND ( 'NONE', #124, .T. ) ;
#202 = COLOUR_RGB ( '',0.7921568627450980000, 0.8196078431372548800, 0.9333333333333333500 ) ;
#203 = CARTESIAN_POINT ( 'NONE',  ( 0.0000000000000000000, 0.0000000000000000000, 0.0000000000000000000 ) ) ;
#204 = LINE ( 'NONE', #41, #55 ) ;
#205 = ORIENTED_EDGE ( 'NONE', *, *, #128, .F. ) ;
#206 = ORIENTED_EDGE ( 'NONE', *, *, #118, .F. ) ;
#207 = EDGE_LOOP ( 'NONE', ( #186, #1, #23 ) ) ;
#208 = DIRECTION ( 'NONE',  ( -0.0000000000000000000, -3.524294441294950700E-020, 1.000000000000000000 ) ) ;
#209 = ADVANCED_FACE ( 'NONE', ( #20 ), #156, .T. ) ;
#210 = STYLED_ITEM ( 'NONE', ( #197 ), #122 ) ;
#211 = PLANE ( 'NONE',  #153 ) ;
#212 = LINE ( 'NONE', #42, #70 ) ;
#213 = FACE_OUTER_BOUND ( 'NONE', #64, .T. ) ;
#214 = CARTESIAN_POINT ( 'NONE',  ( 0.0000000000000000000, 1.011542990540454300E-020, -0.2870199999999936100 ) ) ;
ENDSEC;
END-ISO-10303-21;
