ISO-10303-21;
HEADER;
FILE_DESCRIPTION (( 'STEP AP214' ),
    '1' );
FILE_NAME ('03-0317.STEP',
    '2020-07-23T06:41:02',
    ( '' ),
    ( '' ),
    'SwSTEP 2.0',
    'SolidWorks 2014',
    '' );
FILE_SCHEMA (( 'AUTOMOTIVE_DESIGN' ));
ENDSEC;

DATA;
#1 = CARTESIAN_POINT ( 'NONE',  ( 0.0000000000000000000, 5.373638897804040900E-020, -66.67499999999999700 ) ) ;
#2 = ORIENTED_EDGE ( 'NONE', *, *, #144, .F. ) ;
#3 = CARTESIAN_POINT ( 'NONE',  ( 0.0000000000000000000, 5.420699390431667100E-020, -67.25891685887735600 ) ) ;
#4 = DIRECTION ( 'NONE',  ( -0.0000000000000000000, -8.059450915341644600E-022, 1.000000000000000000 ) ) ;
#5 = DIRECTION ( 'NONE',  ( 0.0000000000000000000, -1.000000000000000000, 0.0000000000000000000 ) ) ;
#6 = CARTESIAN_POINT ( 'NONE',  ( 1.726384592758029000E-016, 1.409700000000004200, -0.2819399999999904200 ) ) ;
#7 = CARTESIAN_POINT ( 'NONE',  ( 1.726384592758029000E-016, 1.409700000000004200, 1.136140795535715100E-021 ) ) ;
#8 = DIRECTION ( 'NONE',  ( 0.0000000000000000000, 0.0000000000000000000, 1.000000000000000000 ) ) ;
#9 = PRODUCT_RELATED_PRODUCT_CATEGORY ( 'part', '', ( #40 ) ) ;
#10 = FACE_OUTER_BOUND ( 'NONE', #106, .T. ) ;
#11 = ORIENTED_EDGE ( 'NONE', *, *, #198, .T. ) ;
#12 = ORIENTED_EDGE ( 'NONE', *, *, #157, .F. ) ;
#13 = MANIFOLD_SOLID_BREP ( '¸ðµû±â1', #28 ) ;
#14 = EDGE_LOOP ( 'NONE', ( #150, #143, #56, #74 ) ) ;
#15 = PRODUCT_DEFINITION_CONTEXT ( 'detailed design', #21, 'design' ) ;
#16 = CARTESIAN_POINT ( 'NONE',  ( 0.0000000000000000000, 1.127760000000012500, 8.631957048013985100E-017 ) ) ;
#17 = CARTESIAN_POINT ( 'NONE',  ( 0.0000000000000000000, -6.956810159812811200E-038, 8.631866156750342200E-017 ) ) ;
#18 = DIRECTION ( 'NONE',  ( -0.0000000000000000000, -8.059450915341644600E-022, 1.000000000000000000 ) ) ;
#19 = EDGE_CURVE ( 'NONE', #163, #38, #22, .T. ) ;
#20 = FACE_OUTER_BOUND ( 'NONE', #178, .T. ) ;
#21 = APPLICATION_CONTEXT ( 'automotive_design' ) ;
#22 = CIRCLE ( 'NONE', #123, 1.409700000000004200 ) ;
#23 = CARTESIAN_POINT ( 'NONE',  ( 0.0000000000000000000, 0.0000000000000000000, 0.0000000000000000000 ) ) ;
#24 = ADVANCED_FACE ( 'NONE', ( #20 ), #122, .T. ) ;
#25 = AXIS2_PLACEMENT_3D ( 'NONE', #23, #8, #166 ) ;
#26 = DIRECTION ( 'NONE',  ( 0.0000000000000000000, 8.059450915341644600E-022, -1.000000000000000000 ) ) ;
#27 = CIRCLE ( 'NONE', #192, 1.409700000000008200 ) ;
#28 = CLOSED_SHELL ( 'NONE', ( #85, #203, #151, #155, #35, #24, #165 ) ) ;
#29 = AXIS2_PLACEMENT_3D ( 'NONE', #153, #200, #54 ) ;
#30 = VERTEX_POINT ( 'NONE', #97 ) ;
#31 = MECHANICAL_DESIGN_GEOMETRIC_PRESENTATION_REPRESENTATION (  '', ( #110 ), #210 ) ;
#32 = DIRECTION ( 'NONE',  ( 0.0000000000000000000, 0.7071067811865489100, -0.7071067811865462400 ) ) ;
#33 = PRODUCT_DEFINITION_FORMATION_WITH_SPECIFIED_SOURCE ( 'ANY', '', #40, .NOT_KNOWN. ) ;
#34 = DIRECTION ( 'NONE',  ( 0.0000000000000000000, -0.9238795325112853000, 0.3826834323650932800 ) ) ;
#35 = ADVANCED_FACE ( 'NONE', ( #69 ), #111, .T. ) ;
#36 = CARTESIAN_POINT ( 'NONE',  ( 0.0000000000000000000, 5.420699390431667100E-020, -67.25891685887735600 ) ) ;
#37 = DIRECTION ( 'NONE',  ( 0.0000000000000000000, -1.000000000000000000, 0.0000000000000000000 ) ) ;
#38 = VERTEX_POINT ( 'NONE', #103 ) ;
#39 = EDGE_LOOP ( 'NONE', ( #12, #11, #125, #191 ) ) ;
#40 = PRODUCT ( '03-0317', '03-0317', '', ( #42 ) ) ;
#41 = CARTESIAN_POINT ( 'NONE',  ( 0.0000000000000000000, 5.373638897804040900E-020, -66.67499999999999700 ) ) ;
#42 = PRODUCT_CONTEXT ( 'NONE', #140, 'mechanical' ) ;
#43 = LINE ( 'NONE', #36, #141 ) ;
#44 = AXIS2_PLACEMENT_3D ( 'NONE', #162, #49, #134 ) ;
#45 = VECTOR ( 'NONE', #75, 1000.000000000000000 ) ;
#46 = CARTESIAN_POINT ( 'NONE',  ( 0.0000000000000000000, 1.127760000000012500, 8.631957048013985100E-017 ) ) ;
#47 = FILL_AREA_STYLE ('',( #99 ) ) ;
#48 = DIRECTION ( 'NONE',  ( 0.0000000000000000000, 1.000000000000000000, 8.059450915344683100E-022 ) ) ;
#49 = DIRECTION ( 'NONE',  ( -0.0000000000000000000, -8.059450915341644600E-022, 1.000000000000000000 ) ) ;
#50 = AXIS2_PLACEMENT_3D ( 'NONE', #105, #72, #37 ) ;
#51 = DIRECTION ( 'NONE',  ( 0.0000000000000000000, 8.059450915341644600E-022, -1.000000000000000000 ) ) ;
#52 = FACE_OUTER_BOUND ( 'NONE', #185, .T. ) ;
#53 = ORIENTED_EDGE ( 'NONE', *, *, #63, .T. ) ;
#54 = DIRECTION ( 'NONE',  ( 0.0000000000000000000, 1.000000000000000000, 8.059450915341643700E-022 ) ) ;
#55 =( NAMED_UNIT ( * ) SI_UNIT ( $, .STERADIAN. ) SOLID_ANGLE_UNIT ( ) );
#56 = ORIENTED_EDGE ( 'NONE', *, *, #19, .T. ) ;
#57 = SURFACE_STYLE_FILL_AREA ( #186 ) ;
#58 = VERTEX_POINT ( 'NONE', #46 ) ;
#59 = SHAPE_DEFINITION_REPRESENTATION ( #211, #201 ) ;
#60 = VERTEX_POINT ( 'NONE', #199 ) ;
#61 = UNCERTAINTY_MEASURE_WITH_UNIT (LENGTH_MEASURE( 1.000000000000000100E-005 ), #202, 'distance_accuracy_value', 'NONE');
#62 = EDGE_LOOP ( 'NONE', ( #65, #209 ) ) ;
#63 = EDGE_CURVE ( 'NONE', #174, #38, #79, .T. ) ;
#64 = UNCERTAINTY_MEASURE_WITH_UNIT (LENGTH_MEASURE( 1.000000000000000100E-005 ), #120, 'distance_accuracy_value', 'NONE');
#65 = ORIENTED_EDGE ( 'NONE', *, *, #100, .T. ) ;
#66 = CARTESIAN_POINT ( 'NONE',  ( 0.0000000000000000000, -7.517380976298477500E-019, 932.7410831411226600 ) ) ;
#67 = DIRECTION ( 'NONE',  ( -0.0000000000000000000, -8.059450915341644600E-022, 1.000000000000000000 ) ) ;
#68 = DIRECTION ( 'NONE',  ( -0.0000000000000000000, -8.059450915341643700E-022, 1.000000000000000000 ) ) ;
#69 = FACE_OUTER_BOUND ( 'NONE', #98, .T. ) ;
#70 = SURFACE_SIDE_STYLE ('',( #160 ) ) ;
#71 = CARTESIAN_POINT ( 'NONE',  ( 0.0000000000000000000, -6.956810159812811200E-038, 8.631866156750342200E-017 ) ) ;
#72 = DIRECTION ( 'NONE',  ( -0.0000000000000000000, -8.059450915341644600E-022, 1.000000000000000000 ) ) ;
#73 = FACE_OUTER_BOUND ( 'NONE', #14, .T. ) ;
#74 = ORIENTED_EDGE ( 'NONE', *, *, #63, .F. ) ;
#75 = DIRECTION ( 'NONE',  ( -0.0000000000000000000, -8.059450915341643700E-022, 1.000000000000000000 ) ) ;
#76 = CARTESIAN_POINT ( 'NONE',  ( 0.0000000000000000000, 0.0000000000000000000, 0.0000000000000000000 ) ) ;
#77 = CONICAL_SURFACE ( 'NONE', #50, 2414.213562373069200, 1.178097245096168600 ) ;
#78 = PRESENTATION_LAYER_ASSIGNMENT (  '', '', ( #80 ) ) ;
#79 = LINE ( 'NONE', #195, #124 ) ;
#80 = STYLED_ITEM ( 'NONE', ( #189 ), #201 ) ;
#81 = ORIENTED_EDGE ( 'NONE', *, *, #132, .F. ) ;
#82 = ORIENTED_EDGE ( 'NONE', *, *, #152, .F. ) ;
#83 = VECTOR ( 'NONE', #32, 1000.000000000000000 ) ;
#84 =( LENGTH_UNIT ( ) NAMED_UNIT ( * ) SI_UNIT ( .MILLI., .METRE. ) );
#85 = ADVANCED_FACE ( 'NONE', ( #172 ), #149, .T. ) ;
#86 = DIRECTION ( 'NONE',  ( 8.659560562354950100E-017, -0.7071067811865489100, -0.7071067811865462400 ) ) ;
#87 = DIRECTION ( 'NONE',  ( -0.0000000000000000000, -8.059450915341644600E-022, 1.000000000000000000 ) ) ;
#88 = SURFACE_SIDE_STYLE ('',( #57 ) ) ;
#89 = COLOUR_RGB ( '',0.7921568627450980000, 0.8196078431372548800, 0.9333333333333333500 ) ;
#90 = APPLICATION_PROTOCOL_DEFINITION ( 'draft international standard', 'automotive_design', 1998, #140 ) ;
#91 = MECHANICAL_DESIGN_GEOMETRIC_PRESENTATION_REPRESENTATION (  '', ( #80 ), #181 ) ;
#92 = LINE ( 'NONE', #7, #45 ) ;
#93 = ORIENTED_EDGE ( 'NONE', *, *, #95, .T. ) ;
#94 = ORIENTED_EDGE ( 'NONE', *, *, #144, .T. ) ;
#95 = EDGE_CURVE ( 'NONE', #58, #163, #102, .T. ) ;
#96 = FACE_OUTER_BOUND ( 'NONE', #62, .T. ) ;
#97 = CARTESIAN_POINT ( 'NONE',  ( 1.726384592758034200E-016, 1.409700000000008600, -66.67499999999999700 ) ) ;
#98 = EDGE_LOOP ( 'NONE', ( #81, #197, #2 ) ) ;
#99 = FILL_AREA_STYLE_COLOUR ( '', #89 ) ;
#100 = EDGE_CURVE ( 'NONE', #58, #60, #113, .T. ) ;
#101 = DIRECTION ( 'NONE',  ( 0.0000000000000000000, -1.000000000000000000, 0.0000000000000000000 ) ) ;
#102 = LINE ( 'NONE', #16, #83 ) ;
#103 = CARTESIAN_POINT ( 'NONE',  ( 0.0000000000000000000, -1.409700000000004200, -0.2819399999999904200 ) ) ;
#104 =( NAMED_UNIT ( * ) PLANE_ANGLE_UNIT ( ) SI_UNIT ( $, .RADIAN. ) );
#105 = CARTESIAN_POINT ( 'NONE',  ( 0.0000000000000000000, -7.517380976298477500E-019, 932.7410831411226600 ) ) ;
#106 = EDGE_LOOP ( 'NONE', ( #129, #128, #93, #193 ) ) ;
#107 = SURFACE_STYLE_USAGE ( .BOTH. , #88 ) ;
#108 =( NAMED_UNIT ( * ) SI_UNIT ( $, .STERADIAN. ) SOLID_ANGLE_UNIT ( ) );
#109 = ORIENTED_EDGE ( 'NONE', *, *, #159, .T. ) ;
#110 = STYLED_ITEM ( 'NONE', ( #154 ), #13 ) ;
#111 = CONICAL_SURFACE ( 'NONE', #118, 2414.213562373069200, 1.178097245096168600 ) ;
#112 = PRODUCT_DEFINITION ( 'UNKNOWN', '', #33, #15 ) ;
#113 = CIRCLE ( 'NONE', #164, 1.127760000000012500 ) ;
#114 = ORIENTED_EDGE ( 'NONE', *, *, #142, .F. ) ;
#115 = DIRECTION ( 'NONE',  ( 0.0000000000000000000, 1.000000000000000000, 8.059450915344683100E-022 ) ) ;
#116 = CARTESIAN_POINT ( 'NONE',  ( 0.0000000000000000000, 2.272281591071346000E-022, -0.2819399999999904200 ) ) ;
#117 = CIRCLE ( 'NONE', #127, 1.127760000000012500 ) ;
#118 = AXIS2_PLACEMENT_3D ( 'NONE', #66, #67, #101 ) ;
#119 = DIRECTION ( 'NONE',  ( 0.0000000000000000000, -1.000000000000000000, -8.059450915341645600E-022 ) ) ;
#120 =( LENGTH_UNIT ( ) NAMED_UNIT ( * ) SI_UNIT ( .MILLI., .METRE. ) );
#121 = PLANE ( 'NONE',  #29 ) ;
#122 = CYLINDRICAL_SURFACE ( 'NONE', #44, 1.409700000000004200 ) ;
#123 = AXIS2_PLACEMENT_3D ( 'NONE', #116, #51, #180 ) ;
#124 = VECTOR ( 'NONE', #68, 1000.000000000000000 ) ;
#125 = ORIENTED_EDGE ( 'NONE', *, *, #19, .F. ) ;
#126 = LINE ( 'NONE', #196, #167 ) ;
#127 = AXIS2_PLACEMENT_3D ( 'NONE', #71, #156, #171 ) ;
#128 = ORIENTED_EDGE ( 'NONE', *, *, #100, .F. ) ;
#129 = ORIENTED_EDGE ( 'NONE', *, *, #198, .F. ) ;
#130 = CARTESIAN_POINT ( 'NONE',  ( 0.0000000000000000000, -6.956810159812811200E-038, 8.631866156750342200E-017 ) ) ;
#131 =( NAMED_UNIT ( * ) SI_UNIT ( $, .STERADIAN. ) SOLID_ANGLE_UNIT ( ) );
#132 = EDGE_CURVE ( 'NONE', #146, #30, #126, .T. ) ;
#133 =( NAMED_UNIT ( * ) PLANE_ANGLE_UNIT ( ) SI_UNIT ( $, .RADIAN. ) );
#134 = DIRECTION ( 'NONE',  ( 0.0000000000000000000, -1.000000000000000000, -8.059450915341645600E-022 ) ) ;
#135 = VECTOR ( 'NONE', #86, 1000.000000000000000 ) ;
#136 = CARTESIAN_POINT ( 'NONE',  ( 0.0000000000000000000, -6.956810159812811200E-038, 8.631866156750342200E-017 ) ) ;
#137 = DIRECTION ( 'NONE',  ( 0.0000000000000000000, 1.000000000000000000, 8.059450915344683100E-022 ) ) ;
#138 = CARTESIAN_POINT ( 'NONE',  ( 1.381107674206434300E-016, -1.127760000000012500, 8.631775265486699200E-017 ) ) ;
#139 = AXIS2_PLACEMENT_3D ( 'NONE', #76, #204, #119 ) ;
#140 = APPLICATION_CONTEXT ( 'automotive_design' ) ;
#141 = VECTOR ( 'NONE', #34, 1000.000000000000000 ) ;
#142 = EDGE_CURVE ( 'NONE', #146, #174, #43, .T. ) ;
#143 = ORIENTED_EDGE ( 'NONE', *, *, #205, .T. ) ;
#144 = EDGE_CURVE ( 'NONE', #30, #174, #145, .T. ) ;
#145 = CIRCLE ( 'NONE', #175, 1.409700000000008200 ) ;
#146 = VERTEX_POINT ( 'NONE', #3 ) ;
#147 = COLOUR_RGB ( '',0.7921568627450980000, 0.8196078431372548800, 0.9333333333333333500 ) ;
#148 = ORIENTED_EDGE ( 'NONE', *, *, #205, .F. ) ;
#149 = CONICAL_SURFACE ( 'NONE', #212, 1.127760000000012500, 0.7853981633974502800 ) ;
#150 = ORIENTED_EDGE ( 'NONE', *, *, #152, .T. ) ;
#151 = ADVANCED_FACE ( 'NONE', ( #52 ), #77, .T. ) ;
#152 = EDGE_CURVE ( 'NONE', #174, #30, #27, .T. ) ;
#153 = CARTESIAN_POINT ( 'NONE',  ( 0.0000000000000000000, 1.409700000000000200, 8.631979770829895900E-017 ) ) ;
#154 = PRESENTATION_STYLE_ASSIGNMENT (( #177 ) ) ;
#155 = ADVANCED_FACE ( 'NONE', ( #96 ), #121, .F. ) ;
#156 = DIRECTION ( 'NONE',  ( -0.0000000000000000000, -8.059450915341644600E-022, 1.000000000000000000 ) ) ;
#157 = EDGE_CURVE ( 'NONE', #60, #58, #117, .T. ) ;
#158 = ORIENTED_EDGE ( 'NONE', *, *, #132, .T. ) ;
#159 = EDGE_CURVE ( 'NONE', #38, #163, #190, .T. ) ;
#160 = SURFACE_STYLE_FILL_AREA ( #47 ) ;
#161 = UNCERTAINTY_MEASURE_WITH_UNIT (LENGTH_MEASURE( 1.000000000000000100E-005 ), #84, 'distance_accuracy_value', 'NONE');
#162 = CARTESIAN_POINT ( 'NONE',  ( 0.0000000000000000000, 0.0000000000000000000, 0.0000000000000000000 ) ) ;
#163 = VERTEX_POINT ( 'NONE', #6 ) ;
#164 = AXIS2_PLACEMENT_3D ( 'NONE', #130, #18, #48 ) ;
#165 = ADVANCED_FACE ( 'NONE', ( #10 ), #213, .T. ) ;
#166 = DIRECTION ( 'NONE',  ( 1.000000000000000000, 0.0000000000000000000, 0.0000000000000000000 ) ) ;
#167 = VECTOR ( 'NONE', #179, 1000.000000000000000 ) ;
#168 = DIRECTION ( 'NONE',  ( 0.0000000000000000000, -1.000000000000000000, 0.0000000000000000000 ) ) ;
#169 = DIRECTION ( 'NONE',  ( 0.0000000000000000000, 1.000000000000000000, 0.0000000000000000000 ) ) ;
#170 = AXIS2_PLACEMENT_3D ( 'NONE', #182, #26, #169 ) ;
#171 = DIRECTION ( 'NONE',  ( 0.0000000000000000000, 1.000000000000000000, 8.059450915344683100E-022 ) ) ;
#172 = FACE_OUTER_BOUND ( 'NONE', #39, .T. ) ;
#173 = AXIS2_PLACEMENT_3D ( 'NONE', #136, #183, #137 ) ;
#174 = VERTEX_POINT ( 'NONE', #187 ) ;
#175 = AXIS2_PLACEMENT_3D ( 'NONE', #1, #4, #168 ) ;
#176 = LINE ( 'NONE', #138, #135 ) ;
#177 = SURFACE_STYLE_USAGE ( .BOTH. , #70 ) ;
#178 = EDGE_LOOP ( 'NONE', ( #148, #94, #53, #109 ) ) ;
#179 = DIRECTION ( 'NONE',  ( 1.131426112287698500E-016, 0.9238795325112853000, 0.3826834323650932800 ) ) ;
#180 = DIRECTION ( 'NONE',  ( 0.0000000000000000000, 1.000000000000000000, 0.0000000000000000000 ) ) ;
#181 =( GEOMETRIC_REPRESENTATION_CONTEXT ( 3 ) GLOBAL_UNCERTAINTY_ASSIGNED_CONTEXT ( ( #64 ) ) GLOBAL_UNIT_ASSIGNED_CONTEXT ( ( #120, #206, #108 ) ) REPRESENTATION_CONTEXT ( 'NONE', 'WORKASPACE' ) );
#182 = CARTESIAN_POINT ( 'NONE',  ( 0.0000000000000000000, 2.272281591071346000E-022, -0.2819399999999904200 ) ) ;
#183 = DIRECTION ( 'NONE',  ( 0.0000000000000000000, 8.059450915341644600E-022, -1.000000000000000000 ) ) ;
#184 = FILL_AREA_STYLE_COLOUR ( '', #147 ) ;
#185 = EDGE_LOOP ( 'NONE', ( #114, #158, #82 ) ) ;
#186 = FILL_AREA_STYLE ('',( #184 ) ) ;
#187 = CARTESIAN_POINT ( 'NONE',  ( 0.0000000000000000000, -1.409700000000008600, -66.67499999999999700 ) ) ;
#188 =( GEOMETRIC_REPRESENTATION_CONTEXT ( 3 ) GLOBAL_UNCERTAINTY_ASSIGNED_CONTEXT ( ( #61 ) ) GLOBAL_UNIT_ASSIGNED_CONTEXT ( ( #202, #104, #55 ) ) REPRESENTATION_CONTEXT ( 'NONE', 'WORKASPACE' ) );
#189 = PRESENTATION_STYLE_ASSIGNMENT (( #107 ) ) ;
#190 = CIRCLE ( 'NONE', #170, 1.409700000000004200 ) ;
#191 = ORIENTED_EDGE ( 'NONE', *, *, #95, .F. ) ;
#192 = AXIS2_PLACEMENT_3D ( 'NONE', #41, #87, #5 ) ;
#193 = ORIENTED_EDGE ( 'NONE', *, *, #159, .F. ) ;
#194 = PRESENTATION_LAYER_ASSIGNMENT (  '', '', ( #110 ) ) ;
#195 = CARTESIAN_POINT ( 'NONE',  ( 0.0000000000000000000, -1.409700000000004200, -1.136140795535715100E-021 ) ) ;
#196 = CARTESIAN_POINT ( 'NONE',  ( 0.0000000000000000000, 5.420699390431667100E-020, -67.25891685887735600 ) ) ;
#197 = ORIENTED_EDGE ( 'NONE', *, *, #142, .T. ) ;
#198 = EDGE_CURVE ( 'NONE', #60, #38, #176, .T. ) ;
#199 = CARTESIAN_POINT ( 'NONE',  ( 1.553746133482231600E-016, -1.127760000000012500, 8.631775265486699200E-017 ) ) ;
#200 = DIRECTION ( 'NONE',  ( 0.0000000000000000000, 8.059450915341643700E-022, -1.000000000000000000 ) ) ;
#201 = ADVANCED_BREP_SHAPE_REPRESENTATION ( '03-0317', ( #13, #25 ), #188 ) ;
#202 =( LENGTH_UNIT ( ) NAMED_UNIT ( * ) SI_UNIT ( .MILLI., .METRE. ) );
#203 = ADVANCED_FACE ( 'NONE', ( #73 ), #208, .T. ) ;
#204 = DIRECTION ( 'NONE',  ( -0.0000000000000000000, -8.059450915341644600E-022, 1.000000000000000000 ) ) ;
#205 = EDGE_CURVE ( 'NONE', #30, #163, #92, .T. ) ;
#206 =( NAMED_UNIT ( * ) PLANE_ANGLE_UNIT ( ) SI_UNIT ( $, .RADIAN. ) );
#207 = APPLICATION_PROTOCOL_DEFINITION ( 'draft international standard', 'automotive_design', 1998, #21 ) ;
#208 = CYLINDRICAL_SURFACE ( 'NONE', #139, 1.409700000000004200 ) ;
#209 = ORIENTED_EDGE ( 'NONE', *, *, #157, .T. ) ;
#210 =( GEOMETRIC_REPRESENTATION_CONTEXT ( 3 ) GLOBAL_UNCERTAINTY_ASSIGNED_CONTEXT ( ( #161 ) ) GLOBAL_UNIT_ASSIGNED_CONTEXT ( ( #84, #133, #131 ) ) REPRESENTATION_CONTEXT ( 'NONE', 'WORKASPACE' ) );
#211 = PRODUCT_DEFINITION_SHAPE ( 'NONE', 'NONE',  #112 ) ;
#212 = AXIS2_PLACEMENT_3D ( 'NONE', #17, #214, #115 ) ;
#213 = CONICAL_SURFACE ( 'NONE', #173, 1.127760000000012500, 0.7853981633974502800 ) ;
#214 = DIRECTION ( 'NONE',  ( 0.0000000000000000000, 8.059450915341644600E-022, -1.000000000000000000 ) ) ;
ENDSEC;
END-ISO-10303-21;
