ISO-10303-21;
HEADER;
FILE_DESCRIPTION (( 'STEP AP214' ),
    '1' );
FILE_NAME ('03-0318.STEP',
    '2020-07-23T06:41:44',
    ( '' ),
    ( '' ),
    'SwSTEP 2.0',
    'SolidWorks 2014',
    '' );
FILE_SCHEMA (( 'AUTOMOTIVE_DESIGN' ));
ENDSEC;

DATA;
#1 = FACE_OUTER_BOUND ( 'NONE', #88, .T. ) ;
#2 = AXIS2_PLACEMENT_3D ( 'NONE', #190, #45, #11 ) ;
#3 = VERTEX_POINT ( 'NONE', #109 ) ;
#4 = CARTESIAN_POINT ( 'NONE',  ( 0.0000000000000000000, 4.319923186520981800E-020, -66.67499999999999700 ) ) ;
#5 = EDGE_CURVE ( 'NONE', #142, #68, #108, .T. ) ;
#6 = DIRECTION ( 'NONE',  ( -0.0000000000000000000, -6.479074895419545800E-022, 1.000000000000000000 ) ) ;
#7 = VECTOR ( 'NONE', #173, 1000.000000000000000 ) ;
#8 = DIRECTION ( 'NONE',  ( 0.0000000000000000000, 1.000000000000000000, 6.479074895377964300E-022 ) ) ;
#9 = PRESENTATION_LAYER_ASSIGNMENT (  '', '', ( #99 ) ) ;
#10 = CARTESIAN_POINT ( 'NONE',  ( 0.0000000000000000000, 0.0000000000000000000, 0.0000000000000000000 ) ) ;
#11 = DIRECTION ( 'NONE',  ( 0.0000000000000000000, -1.000000000000000000, -6.479074895419543900E-022 ) ) ;
#12 = SURFACE_STYLE_USAGE ( .BOTH. , #75 ) ;
#13 = AXIS2_PLACEMENT_3D ( 'NONE', #130, #40, #128 ) ;
#14 = AXIS2_PLACEMENT_3D ( 'NONE', #204, #145, #191 ) ;
#15 = ORIENTED_EDGE ( 'NONE', *, *, #90, .F. ) ;
#16 = FILL_AREA_STYLE ('',( #129 ) ) ;
#17 = COLOUR_RGB ( '',0.7921568627450980000, 0.8196078431372548800, 0.9333333333333333500 ) ;
#18 = PRODUCT_DEFINITION_FORMATION_WITH_SPECIFIED_SOURCE ( 'ANY', '', #162, .NOT_KNOWN. ) ;
#19 = EDGE_LOOP ( 'NONE', ( #136, #151 ) ) ;
#20 = PLANE ( 'NONE',  #34 ) ;
#21 = DIRECTION ( 'NONE',  ( -0.0000000000000000000, -6.479074895419545800E-022, 1.000000000000000000 ) ) ;
#22 = CONICAL_SURFACE ( 'NONE', #67, 2414.213562373094600, 1.178097245096172400 ) ;
#23 = FACE_OUTER_BOUND ( 'NONE', #30, .T. ) ;
#24 = FILL_AREA_STYLE_COLOUR ( '', #17 ) ;
#25 = ORIENTED_EDGE ( 'NONE', *, *, #5, .F. ) ;
#26 =( GEOMETRIC_REPRESENTATION_CONTEXT ( 3 ) GLOBAL_UNCERTAINTY_ASSIGNED_CONTEXT ( ( #42 ) ) GLOBAL_UNIT_ASSIGNED_CONTEXT ( ( #97, #96, #113 ) ) REPRESENTATION_CONTEXT ( 'NONE', 'WORKASPACE' ) );
#27 = CARTESIAN_POINT ( 'NONE',  ( 1.710831578408862600E-016, 1.397000000000008200, -66.67499999999999700 ) ) ;
#28 = CONICAL_SURFACE ( 'NONE', #74, 2414.213562373094600, 1.178097245096172400 ) ;
#29 = AXIS2_PLACEMENT_3D ( 'NONE', #114, #146, #161 ) ;
#30 = EDGE_LOOP ( 'NONE', ( #59, #143, #182, #55 ) ) ;
#31 = CIRCLE ( 'NONE', #14, 1.397000000000004200 ) ;
#32 =( NAMED_UNIT ( * ) PLANE_ANGLE_UNIT ( ) SI_UNIT ( $, .RADIAN. ) );
#33 = VECTOR ( 'NONE', #43, 1000.000000000000000 ) ;
#34 = AXIS2_PLACEMENT_3D ( 'NONE', #205, #171, #54 ) ;
#35 = ADVANCED_FACE ( 'NONE', ( #117 ), #202, .T. ) ;
#36 = FACE_OUTER_BOUND ( 'NONE', #19, .T. ) ;
#37 = PRESENTATION_LAYER_ASSIGNMENT (  '', '', ( #120 ) ) ;
#38 = EDGE_CURVE ( 'NONE', #68, #65, #214, .T. ) ;
#39 = VERTEX_POINT ( 'NONE', #56 ) ;
#40 = DIRECTION ( 'NONE',  ( -0.0000000000000000000, -6.479074895419545800E-022, 1.000000000000000000 ) ) ;
#41 = CARTESIAN_POINT ( 'NONE',  ( 1.710831578408857400E-016, 1.397000000000004200, 9.051267628901130600E-022 ) ) ;
#42 = UNCERTAINTY_MEASURE_WITH_UNIT (LENGTH_MEASURE( 1.000000000000000100E-005 ), #97, 'distance_accuracy_value', 'NONE');
#43 = DIRECTION ( 'NONE',  ( 0.0000000000000000000, -0.9238795325112867400, 0.3826834323650898400 ) ) ;
#44 = ORIENTED_EDGE ( 'NONE', *, *, #77, .T. ) ;
#45 = DIRECTION ( 'NONE',  ( -0.0000000000000000000, -6.479074895419545800E-022, 1.000000000000000000 ) ) ;
#46 = AXIS2_PLACEMENT_3D ( 'NONE', #163, #147, #78 ) ;
#47 = APPLICATION_CONTEXT ( 'automotive_design' ) ;
#48 = APPLICATION_CONTEXT ( 'automotive_design' ) ;
#49 = CLOSED_SHELL ( 'NONE', ( #35, #107, #185, #51, #201, #123, #187 ) ) ;
#50 =( NAMED_UNIT ( * ) SI_UNIT ( $, .STERADIAN. ) SOLID_ANGLE_UNIT ( ) );
#51 = ADVANCED_FACE ( 'NONE', ( #36 ), #20, .F. ) ;
#52 = EDGE_CURVE ( 'NONE', #68, #142, #152, .T. ) ;
#53 = ORIENTED_EDGE ( 'NONE', *, *, #110, .F. ) ;
#54 = DIRECTION ( 'NONE',  ( 0.0000000000000000000, 1.000000000000000000, 6.479074895419545800E-022 ) ) ;
#55 = ORIENTED_EDGE ( 'NONE', *, *, #38, .F. ) ;
#56 = CARTESIAN_POINT ( 'NONE',  ( 0.0000000000000000000, 4.357414764606576000E-020, -67.25365634663521100 ) ) ;
#57 =( LENGTH_UNIT ( ) NAMED_UNIT ( * ) SI_UNIT ( .MILLI., .METRE. ) );
#58 = DIRECTION ( 'NONE',  ( 0.0000000000000000000, -1.000000000000000000, -6.479074895419543900E-022 ) ) ;
#59 = ORIENTED_EDGE ( 'NONE', *, *, #52, .T. ) ;
#60 = CARTESIAN_POINT ( 'NONE',  ( 0.0000000000000000000, -6.043333418958888300E-019, 932.7463436533647600 ) ) ;
#61 = DIRECTION ( 'NONE',  ( -0.0000000000000000000, -6.479074895419545800E-022, 1.000000000000000000 ) ) ;
#62 = ORIENTED_EDGE ( 'NONE', *, *, #90, .T. ) ;
#63 = EDGE_CURVE ( 'NONE', #3, #65, #31, .T. ) ;
#64 =( GEOMETRIC_REPRESENTATION_CONTEXT ( 3 ) GLOBAL_UNCERTAINTY_ASSIGNED_CONTEXT ( ( #198 ) ) GLOBAL_UNIT_ASSIGNED_CONTEXT ( ( #57, #32, #101 ) ) REPRESENTATION_CONTEXT ( 'NONE', 'WORKASPACE' ) );
#65 = VERTEX_POINT ( 'NONE', #125 ) ;
#66 = ORIENTED_EDGE ( 'NONE', *, *, #52, .F. ) ;
#67 = AXIS2_PLACEMENT_3D ( 'NONE', #60, #100, #164 ) ;
#68 = VERTEX_POINT ( 'NONE', #127 ) ;
#69 = AXIS2_PLACEMENT_3D ( 'NONE', #10, #98, #58 ) ;
#70 = CYLINDRICAL_SURFACE ( 'NONE', #2, 1.397000000000004200 ) ;
#71 = CIRCLE ( 'NONE', #13, 1.117600000000010100 ) ;
#72 = CARTESIAN_POINT ( 'NONE',  ( 0.0000000000000000000, 4.319923186520981800E-020, -66.67499999999999700 ) ) ;
#73 = AXIS2_PLACEMENT_3D ( 'NONE', #72, #21, #169 ) ;
#74 = AXIS2_PLACEMENT_3D ( 'NONE', #148, #133, #211 ) ;
#75 = SURFACE_SIDE_STYLE ('',( #137 ) ) ;
#76 = DIRECTION ( 'NONE',  ( 0.0000000000000000000, 0.7071067811865425800, -0.7071067811865525700 ) ) ;
#77 = EDGE_CURVE ( 'NONE', #65, #3, #180, .T. ) ;
#78 = DIRECTION ( 'NONE',  ( 0.0000000000000000000, 1.000000000000000000, 6.479074895377964300E-022 ) ) ;
#79 = DIRECTION ( 'NONE',  ( 0.0000000000000000000, 6.479074895419544800E-022, -1.000000000000000000 ) ) ;
#80 = ORIENTED_EDGE ( 'NONE', *, *, #195, .T. ) ;
#81 = PRESENTATION_STYLE_ASSIGNMENT (( #183 ) ) ;
#82 = AXIS2_PLACEMENT_3D ( 'NONE', #175, #79, #115 ) ;
#83 = CYLINDRICAL_SURFACE ( 'NONE', #69, 1.397000000000004200 ) ;
#84 = FACE_OUTER_BOUND ( 'NONE', #134, .T. ) ;
#85 = MECHANICAL_DESIGN_GEOMETRIC_PRESENTATION_REPRESENTATION (  '', ( #120 ), #26 ) ;
#86 = AXIS2_PLACEMENT_3D ( 'NONE', #92, #159, #8 ) ;
#87 = PRODUCT_DEFINITION_SHAPE ( 'NONE', 'NONE',  #132 ) ;
#88 = EDGE_LOOP ( 'NONE', ( #106, #200, #154, #207 ) ) ;
#89 = SHAPE_DEFINITION_REPRESENTATION ( #87, #111 ) ;
#90 = EDGE_CURVE ( 'NONE', #39, #142, #203, .T. ) ;
#91 = ORIENTED_EDGE ( 'NONE', *, *, #5, .T. ) ;
#92 = CARTESIAN_POINT ( 'NONE',  ( 0.0000000000000000000, -5.542273643059461400E-038, 8.554112635706117000E-017 ) ) ;
#93 = VECTOR ( 'NONE', #61, 1000.000000000000000 ) ;
#94 = EDGE_CURVE ( 'NONE', #174, #3, #149, .T. ) ;
#95 = CARTESIAN_POINT ( 'NONE',  ( 0.0000000000000000000, 0.0000000000000000000, 0.0000000000000000000 ) ) ;
#96 =( NAMED_UNIT ( * ) PLANE_ANGLE_UNIT ( ) SI_UNIT ( $, .RADIAN. ) );
#97 =( LENGTH_UNIT ( ) NAMED_UNIT ( * ) SI_UNIT ( .MILLI., .METRE. ) );
#98 = DIRECTION ( 'NONE',  ( -0.0000000000000000000, -6.479074895419545800E-022, 1.000000000000000000 ) ) ;
#99 = STYLED_ITEM ( 'NONE', ( #81 ), #111 ) ;
#100 = DIRECTION ( 'NONE',  ( -0.0000000000000000000, -6.479074895419545800E-022, 1.000000000000000000 ) ) ;
#101 =( NAMED_UNIT ( * ) SI_UNIT ( $, .STERADIAN. ) SOLID_ANGLE_UNIT ( ) );
#102 = ORIENTED_EDGE ( 'NONE', *, *, #199, .T. ) ;
#103 = DIRECTION ( 'NONE',  ( 1.000000000000000000, 0.0000000000000000000, 0.0000000000000000000 ) ) ;
#104 = PRODUCT_CONTEXT ( 'NONE', #47, 'mechanical' ) ;
#105 = LINE ( 'NONE', #178, #33 ) ;
#106 = ORIENTED_EDGE ( 'NONE', *, *, #199, .F. ) ;
#107 = ADVANCED_FACE ( 'NONE', ( #23 ), #70, .T. ) ;
#108 = CIRCLE ( 'NONE', #73, 1.397000000000008200 ) ;
#109 = CARTESIAN_POINT ( 'NONE',  ( 1.710831578408857400E-016, 1.397000000000004200, -0.2793999999999977100 ) ) ;
#110 = EDGE_CURVE ( 'NONE', #142, #3, #170, .T. ) ;
#111 = ADVANCED_BREP_SHAPE_REPRESENTATION ( '03-0318', ( #135, #112 ), #64 ) ;
#112 = AXIS2_PLACEMENT_3D ( 'NONE', #95, #166, #103 ) ;
#113 =( NAMED_UNIT ( * ) SI_UNIT ( $, .STERADIAN. ) SOLID_ANGLE_UNIT ( ) );
#114 = CARTESIAN_POINT ( 'NONE',  ( 0.0000000000000000000, -5.542273643059461400E-038, 8.554112635706117000E-017 ) ) ;
#115 = DIRECTION ( 'NONE',  ( 0.0000000000000000000, 1.000000000000000000, 0.0000000000000000000 ) ) ;
#116 = DIRECTION ( 'NONE',  ( 1.131426112287700300E-016, 0.9238795325112867400, 0.3826834323650898400 ) ) ;
#117 = FACE_OUTER_BOUND ( 'NONE', #186, .T. ) ;
#118 = ORIENTED_EDGE ( 'NONE', *, *, #38, .T. ) ;
#119 = VECTOR ( 'NONE', #76, 999.9999999999998900 ) ;
#120 = STYLED_ITEM ( 'NONE', ( #189 ), #135 ) ;
#121 = FACE_OUTER_BOUND ( 'NONE', #140, .T. ) ;
#122 =( NAMED_UNIT ( * ) PLANE_ANGLE_UNIT ( ) SI_UNIT ( $, .RADIAN. ) );
#123 = ADVANCED_FACE ( 'NONE', ( #121 ), #83, .T. ) ;
#124 = EDGE_CURVE ( 'NONE', #168, #174, #209, .T. ) ;
#125 = CARTESIAN_POINT ( 'NONE',  ( 0.0000000000000000000, -1.397000000000004200, -0.2793999999999977100 ) ) ;
#126 = COLOUR_RGB ( '',0.7921568627450980000, 0.8196078431372548800, 0.9333333333333333500 ) ;
#127 = CARTESIAN_POINT ( 'NONE',  ( 0.0000000000000000000, -1.397000000000008200, -66.67499999999999700 ) ) ;
#128 = DIRECTION ( 'NONE',  ( 0.0000000000000000000, 1.000000000000000000, 6.479074895377964300E-022 ) ) ;
#129 = FILL_AREA_STYLE_COLOUR ( '', #126 ) ;
#130 = CARTESIAN_POINT ( 'NONE',  ( 0.0000000000000000000, -5.542273643059461400E-038, 8.554112635706117000E-017 ) ) ;
#131 = CARTESIAN_POINT ( 'NONE',  ( 1.539748420567976100E-016, -1.117600000000010100, 8.554040225565085900E-017 ) ) ;
#132 = PRODUCT_DEFINITION ( 'UNKNOWN', '', #18, #179 ) ;
#133 = DIRECTION ( 'NONE',  ( -0.0000000000000000000, -6.479074895419545800E-022, 1.000000000000000000 ) ) ;
#134 = EDGE_LOOP ( 'NONE', ( #177, #62, #66 ) ) ;
#135 = MANIFOLD_SOLID_BREP ( '¸ðµû±â1', #49 ) ;
#136 = ORIENTED_EDGE ( 'NONE', *, *, #144, .T. ) ;
#137 = SURFACE_STYLE_FILL_AREA ( #193 ) ;
#138 = APPLICATION_PROTOCOL_DEFINITION ( 'draft international standard', 'automotive_design', 1998, #48 ) ;
#139 = VECTOR ( 'NONE', #116, 1000.000000000000000 ) ;
#140 = EDGE_LOOP ( 'NONE', ( #53, #91, #118, #44 ) ) ;
#141 = UNCERTAINTY_MEASURE_WITH_UNIT (LENGTH_MEASURE( 1.000000000000000100E-005 ), #167, 'distance_accuracy_value', 'NONE');
#142 = VERTEX_POINT ( 'NONE', #27 ) ;
#143 = ORIENTED_EDGE ( 'NONE', *, *, #110, .T. ) ;
#144 = EDGE_CURVE ( 'NONE', #174, #168, #71, .T. ) ;
#145 = DIRECTION ( 'NONE',  ( 0.0000000000000000000, 6.479074895419544800E-022, -1.000000000000000000 ) ) ;
#146 = DIRECTION ( 'NONE',  ( 0.0000000000000000000, 6.479074895419544800E-022, -1.000000000000000000 ) ) ;
#147 = DIRECTION ( 'NONE',  ( -0.0000000000000000000, -6.479074895419545800E-022, 1.000000000000000000 ) ) ;
#148 = CARTESIAN_POINT ( 'NONE',  ( 0.0000000000000000000, -6.043333418958888300E-019, 932.7463436533647600 ) ) ;
#149 = LINE ( 'NONE', #188, #119 ) ;
#150 = EDGE_LOOP ( 'NONE', ( #15, #80, #25 ) ) ;
#151 = ORIENTED_EDGE ( 'NONE', *, *, #124, .T. ) ;
#152 = CIRCLE ( 'NONE', #206, 1.397000000000008200 ) ;
#153 = VECTOR ( 'NONE', #208, 999.9999999999998900 ) ;
#154 = ORIENTED_EDGE ( 'NONE', *, *, #94, .T. ) ;
#155 = CARTESIAN_POINT ( 'NONE',  ( 0.0000000000000000000, -1.397000000000004200, -9.051267628901130600E-022 ) ) ;
#156 = DIRECTION ( 'NONE',  ( 0.0000000000000000000, -1.000000000000000000, 0.0000000000000000000 ) ) ;
#157 = FACE_OUTER_BOUND ( 'NONE', #150, .T. ) ;
#158 =( GEOMETRIC_REPRESENTATION_CONTEXT ( 3 ) GLOBAL_UNCERTAINTY_ASSIGNED_CONTEXT ( ( #141 ) ) GLOBAL_UNIT_ASSIGNED_CONTEXT ( ( #167, #122, #50 ) ) REPRESENTATION_CONTEXT ( 'NONE', 'WORKASPACE' ) );
#159 = DIRECTION ( 'NONE',  ( 0.0000000000000000000, 6.479074895419544800E-022, -1.000000000000000000 ) ) ;
#160 = CARTESIAN_POINT ( 'NONE',  ( 0.0000000000000000000, 1.117600000000010100, 8.554185045847146800E-017 ) ) ;
#161 = DIRECTION ( 'NONE',  ( 0.0000000000000000000, 1.000000000000000000, 6.479074895377964300E-022 ) ) ;
#162 = PRODUCT ( '03-0318', '03-0318', '', ( #104 ) ) ;
#163 = CARTESIAN_POINT ( 'NONE',  ( 0.0000000000000000000, -5.542273643059461400E-038, 8.554112635706117000E-017 ) ) ;
#164 = DIRECTION ( 'NONE',  ( 0.0000000000000000000, -1.000000000000000000, 0.0000000000000000000 ) ) ;
#165 = MECHANICAL_DESIGN_GEOMETRIC_PRESENTATION_REPRESENTATION (  '', ( #99 ), #158 ) ;
#166 = DIRECTION ( 'NONE',  ( 0.0000000000000000000, 0.0000000000000000000, 1.000000000000000000 ) ) ;
#167 =( LENGTH_UNIT ( ) NAMED_UNIT ( * ) SI_UNIT ( .MILLI., .METRE. ) );
#168 = VERTEX_POINT ( 'NONE', #131 ) ;
#169 = DIRECTION ( 'NONE',  ( 0.0000000000000000000, -1.000000000000000000, 0.0000000000000000000 ) ) ;
#170 = LINE ( 'NONE', #41, #93 ) ;
#171 = DIRECTION ( 'NONE',  ( 0.0000000000000000000, 6.479074895419545800E-022, -1.000000000000000000 ) ) ;
#172 = SURFACE_STYLE_FILL_AREA ( #16 ) ;
#173 = DIRECTION ( 'NONE',  ( -0.0000000000000000000, -6.479074895419545800E-022, 1.000000000000000000 ) ) ;
#174 = VERTEX_POINT ( 'NONE', #160 ) ;
#175 = CARTESIAN_POINT ( 'NONE',  ( 0.0000000000000000000, 1.810253525780206100E-022, -0.2793999999999977100 ) ) ;
#176 = CARTESIAN_POINT ( 'NONE',  ( 1.368665262727094600E-016, -1.117600000000010100, 8.554040225565085900E-017 ) ) ;
#177 = ORIENTED_EDGE ( 'NONE', *, *, #195, .F. ) ;
#178 = CARTESIAN_POINT ( 'NONE',  ( 0.0000000000000000000, 4.357414764606576000E-020, -67.25365634663521100 ) ) ;
#179 = PRODUCT_DEFINITION_CONTEXT ( 'detailed design', #48, 'design' ) ;
#180 = CIRCLE ( 'NONE', #82, 1.397000000000004200 ) ;
#181 = SURFACE_SIDE_STYLE ('',( #172 ) ) ;
#182 = ORIENTED_EDGE ( 'NONE', *, *, #63, .T. ) ;
#183 = SURFACE_STYLE_USAGE ( .BOTH. , #181 ) ;
#184 = ORIENTED_EDGE ( 'NONE', *, *, #63, .F. ) ;
#185 = ADVANCED_FACE ( 'NONE', ( #84 ), #28, .T. ) ;
#186 = EDGE_LOOP ( 'NONE', ( #212, #102, #184, #196 ) ) ;
#187 = ADVANCED_FACE ( 'NONE', ( #1 ), #210, .T. ) ;
#188 = CARTESIAN_POINT ( 'NONE',  ( 0.0000000000000000000, 1.117600000000010100, 8.554185045847146800E-017 ) ) ;
#189 = PRESENTATION_STYLE_ASSIGNMENT (( #12 ) ) ;
#190 = CARTESIAN_POINT ( 'NONE',  ( 0.0000000000000000000, 0.0000000000000000000, 0.0000000000000000000 ) ) ;
#191 = DIRECTION ( 'NONE',  ( 0.0000000000000000000, 1.000000000000000000, 0.0000000000000000000 ) ) ;
#192 = CARTESIAN_POINT ( 'NONE',  ( 7.197826970751551600E-052, 4.357414764606577200E-020, -67.25365634663521100 ) ) ;
#193 = FILL_AREA_STYLE ('',( #24 ) ) ;
#194 = LINE ( 'NONE', #176, #153 ) ;
#195 = EDGE_CURVE ( 'NONE', #39, #68, #105, .T. ) ;
#196 = ORIENTED_EDGE ( 'NONE', *, *, #94, .F. ) ;
#197 = PRODUCT_RELATED_PRODUCT_CATEGORY ( 'part', '', ( #162 ) ) ;
#198 = UNCERTAINTY_MEASURE_WITH_UNIT (LENGTH_MEASURE( 1.000000000000000100E-005 ), #57, 'distance_accuracy_value', 'NONE');
#199 = EDGE_CURVE ( 'NONE', #168, #65, #194, .T. ) ;
#200 = ORIENTED_EDGE ( 'NONE', *, *, #144, .F. ) ;
#201 = ADVANCED_FACE ( 'NONE', ( #157 ), #22, .T. ) ;
#202 = CONICAL_SURFACE ( 'NONE', #86, 1.117600000000010100, 0.7853981633974412800 ) ;
#203 = LINE ( 'NONE', #192, #139 ) ;
#204 = CARTESIAN_POINT ( 'NONE',  ( 0.0000000000000000000, 1.810253525780206100E-022, -0.2793999999999977100 ) ) ;
#205 = CARTESIAN_POINT ( 'NONE',  ( 0.0000000000000000000, 1.397000000000000000, 8.554203148382405200E-017 ) ) ;
#206 = AXIS2_PLACEMENT_3D ( 'NONE', #4, #6, #156 ) ;
#207 = ORIENTED_EDGE ( 'NONE', *, *, #77, .F. ) ;
#208 = DIRECTION ( 'NONE',  ( 8.659560562354874900E-017, -0.7071067811865425800, -0.7071067811865525700 ) ) ;
#209 = CIRCLE ( 'NONE', #46, 1.117600000000010100 ) ;
#210 = CONICAL_SURFACE ( 'NONE', #29, 1.117600000000010100, 0.7853981633974412800 ) ;
#211 = DIRECTION ( 'NONE',  ( 0.0000000000000000000, -1.000000000000000000, 0.0000000000000000000 ) ) ;
#212 = ORIENTED_EDGE ( 'NONE', *, *, #124, .F. ) ;
#213 = APPLICATION_PROTOCOL_DEFINITION ( 'draft international standard', 'automotive_design', 1998, #47 ) ;
#214 = LINE ( 'NONE', #155, #7 ) ;
ENDSEC;
END-ISO-10303-21;
