ISO-10303-21;
HEADER;
FILE_DESCRIPTION (( 'STEP AP214' ),
    '1' );
FILE_NAME ('03-0319.STEP',
    '2020-07-23T06:42:24',
    ( '' ),
    ( '' ),
    'SwSTEP 2.0',
    'SolidWorks 2014',
    '' );
FILE_SCHEMA (( 'AUTOMOTIVE_DESIGN' ));
ENDSEC;

DATA;
#1 = PRODUCT_DEFINITION_FORMATION_WITH_SPECIFIED_SOURCE ( 'ANY', '', #19, .NOT_KNOWN. ) ;
#2 = UNCERTAINTY_MEASURE_WITH_UNIT (LENGTH_MEASURE( 1.000000000000000100E-005 ), #119, 'distance_accuracy_value', 'NONE');
#3 = PRESENTATION_STYLE_ASSIGNMENT (( #163 ) ) ;
#4 = CARTESIAN_POINT ( 'NONE',  ( 0.0000000000000000000, -3.427272846358196400E-036, 8.279180613960932500E-017 ) ) ;
#5 = APPLICATION_PROTOCOL_DEFINITION ( 'draft international standard', 'automotive_design', 1998, #171 ) ;
#6 = CARTESIAN_POINT ( 'NONE',  ( 1.656396028186756800E-016, 1.352550000000003500, -0.2705100000000008100 ) ) ;
#7 = EDGE_CURVE ( 'NONE', #58, #66, #80, .T. ) ;
#8 =( NAMED_UNIT ( * ) SI_UNIT ( $, .STERADIAN. ) SOLID_ANGLE_UNIT ( ) );
#9 = VERTEX_POINT ( 'NONE', #109 ) ;
#10 =( NAMED_UNIT ( * ) PLANE_ANGLE_UNIT ( ) SI_UNIT ( $, .RADIAN. ) );
#11 = EDGE_CURVE ( 'NONE', #166, #105, #29, .T. ) ;
#12 = CARTESIAN_POINT ( 'NONE',  ( 0.0000000000000000000, 2.628663824252843600E-018, -63.50000000000000000 ) ) ;
#13 = EDGE_LOOP ( 'NONE', ( #21, #108, #201 ) ) ;
#14 = EDGE_CURVE ( 'NONE', #9, #66, #203, .T. ) ;
#15 = AXIS2_PLACEMENT_3D ( 'NONE', #211, #86, #85 ) ;
#16 = DIRECTION ( 'NONE',  ( -0.0000000000000000000, -4.139628069689517000E-020, 1.000000000000000000 ) ) ;
#17 = ORIENTED_EDGE ( 'NONE', *, *, #14, .T. ) ;
#18 = FILL_AREA_STYLE_COLOUR ( '', #100 ) ;
#19 = PRODUCT ( '03-0319', '03-0319', '', ( #132 ) ) ;
#20 = EDGE_CURVE ( 'NONE', #66, #58, #94, .T. ) ;
#21 = ORIENTED_EDGE ( 'NONE', *, *, #14, .F. ) ;
#22 = LINE ( 'NONE', #209, #197 ) ;
#23 = AXIS2_PLACEMENT_3D ( 'NONE', #112, #148, #41 ) ;
#24 =( NAMED_UNIT ( * ) SI_UNIT ( $, .STERADIAN. ) SOLID_ANGLE_UNIT ( ) );
#25 = DIRECTION ( 'NONE',  ( -0.0000000000000000000, -4.139628069689517000E-020, 1.000000000000000000 ) ) ;
#26 = AXIS2_PLACEMENT_3D ( 'NONE', #122, #155, #52 ) ;
#27 = ORIENTED_EDGE ( 'NONE', *, *, #96, .F. ) ;
#28 = DIRECTION ( 'NONE',  ( 0.0000000000000000000, 4.139628069689517000E-020, -1.000000000000000000 ) ) ;
#29 = CIRCLE ( 'NONE', #15, 1.352550000000003500 ) ;
#30 = ADVANCED_BREP_SHAPE_REPRESENTATION ( '03-0319', ( #45, #135 ), #152 ) ;
#31 = MECHANICAL_DESIGN_GEOMETRIC_PRESENTATION_REPRESENTATION (  '', ( #38 ), #74 ) ;
#32 = EDGE_LOOP ( 'NONE', ( #160, #185, #99, #186 ) ) ;
#33 = EDGE_CURVE ( 'NONE', #66, #166, #130, .T. ) ;
#34 = CIRCLE ( 'NONE', #23, 1.082040000000006300 ) ;
#35 = AXIS2_PLACEMENT_3D ( 'NONE', #46, #83, #164 ) ;
#36 = CARTESIAN_POINT ( 'NONE',  ( 0.0000000000000000000, 1.352549999999999900, 8.284779667906591600E-017 ) ) ;
#37 = DIRECTION ( 'NONE',  ( 0.0000000000000000000, 1.000000000000000000, 4.139628069689855300E-020 ) ) ;
#38 = STYLED_ITEM ( 'NONE', ( #106 ), #45 ) ;
#39 = CONICAL_SURFACE ( 'NONE', #59, 1.082040000000006300, 0.7853981633974415100 ) ;
#40 = VECTOR ( 'NONE', #195, 1000.000000000000000 ) ;
#41 = DIRECTION ( 'NONE',  ( 0.0000000000000000000, 1.000000000000000000, 4.139628069689855300E-020 ) ) ;
#42 = ADVANCED_FACE ( 'NONE', ( #162 ), #205, .T. ) ;
#43 = APPLICATION_PROTOCOL_DEFINITION ( 'draft international standard', 'automotive_design', 1998, #151 ) ;
#44 = AXIS2_PLACEMENT_3D ( 'NONE', #12, #138, #198 ) ;
#45 = MANIFOLD_SOLID_BREP ( '¸ðµû±â1', #157 ) ;
#46 = CARTESIAN_POINT ( 'NONE',  ( 0.0000000000000000000, -3.874442483183482300E-017, 935.9397554462121900 ) ) ;
#47 = CARTESIAN_POINT ( 'NONE',  ( 0.0000000000000000000, -3.874442483183482300E-017, 935.9397554462121900 ) ) ;
#48 = CONICAL_SURFACE ( 'NONE', #35, 2414.213562373067400, 1.178097245096168400 ) ;
#49 = ORIENTED_EDGE ( 'NONE', *, *, #33, .F. ) ;
#50 = CIRCLE ( 'NONE', #53, 1.352550000000003500 ) ;
#51 = AXIS2_PLACEMENT_3D ( 'NONE', #182, #199, #103 ) ;
#52 = DIRECTION ( 'NONE',  ( 0.0000000000000000000, -1.000000000000000000, -4.139628069689516400E-020 ) ) ;
#53 = AXIS2_PLACEMENT_3D ( 'NONE', #62, #28, #165 ) ;
#54 = PRODUCT_RELATED_PRODUCT_CATEGORY ( 'part', '', ( #19 ) ) ;
#55 = ORIENTED_EDGE ( 'NONE', *, *, #7, .F. ) ;
#56 = AXIS2_PLACEMENT_3D ( 'NONE', #4, #187, #174 ) ;
#57 = COLOUR_RGB ( '',0.7921568627450980000, 0.8196078431372548800, 0.9333333333333333500 ) ;
#58 = VERTEX_POINT ( 'NONE', #129 ) ;
#59 = AXIS2_PLACEMENT_3D ( 'NONE', #145, #169, #37 ) ;
#60 = PLANE ( 'NONE',  #82 ) ;
#61 = VERTEX_POINT ( 'NONE', #149 ) ;
#62 = CARTESIAN_POINT ( 'NONE',  ( 0.0000000000000000000, 1.119810789131714700E-020, -0.2705100000000008100 ) ) ;
#63 =( LENGTH_UNIT ( ) NAMED_UNIT ( * ) SI_UNIT ( .MILLI., .METRE. ) );
#64 = ORIENTED_EDGE ( 'NONE', *, *, #140, .F. ) ;
#65 = PRESENTATION_LAYER_ASSIGNMENT (  '', '', ( #156 ) ) ;
#66 = VERTEX_POINT ( 'NONE', #206 ) ;
#67 = CARTESIAN_POINT ( 'NONE',  ( 0.0000000000000000000, 2.651855865060347500E-018, -64.06024455378774000 ) ) ;
#68 = FACE_OUTER_BOUND ( 'NONE', #192, .T. ) ;
#69 = SURFACE_SIDE_STYLE ('',( #90 ) ) ;
#70 = PRESENTATION_LAYER_ASSIGNMENT (  '', '', ( #38 ) ) ;
#71 = VERTEX_POINT ( 'NONE', #111 ) ;
#72 = UNCERTAINTY_MEASURE_WITH_UNIT (LENGTH_MEASURE( 1.000000000000000100E-005 ), #212, 'distance_accuracy_value', 'NONE');
#73 = ORIENTED_EDGE ( 'NONE', *, *, #104, .T. ) ;
#74 =( GEOMETRIC_REPRESENTATION_CONTEXT ( 3 ) GLOBAL_UNCERTAINTY_ASSIGNED_CONTEXT ( ( #72 ) ) GLOBAL_UNIT_ASSIGNED_CONTEXT ( ( #212, #95, #131 ) ) REPRESENTATION_CONTEXT ( 'NONE', 'WORKASPACE' ) );
#75 = VECTOR ( 'NONE', #16, 1000.000000000000000 ) ;
#76 = AXIS2_PLACEMENT_3D ( 'NONE', #191, #25, #154 ) ;
#77 = CARTESIAN_POINT ( 'NONE',  ( 1.325116822549410000E-016, -1.082040000000006300, 8.274701370804404700E-017 ) ) ;
#78 = MECHANICAL_DESIGN_GEOMETRIC_PRESENTATION_REPRESENTATION (  '', ( #156 ), #89 ) ;
#79 = ORIENTED_EDGE ( 'NONE', *, *, #87, .T. ) ;
#80 = CIRCLE ( 'NONE', #51, 1.352550000000007500 ) ;
#81 =( NAMED_UNIT ( * ) PLANE_ANGLE_UNIT ( ) SI_UNIT ( $, .RADIAN. ) );
#82 = AXIS2_PLACEMENT_3D ( 'NONE', #36, #91, #170 ) ;
#83 = DIRECTION ( 'NONE',  ( -0.0000000000000000000, -4.139628069689517000E-020, 1.000000000000000000 ) ) ;
#84 = DIRECTION ( 'NONE',  ( -0.0000000000000000000, -4.139628069689517000E-020, 1.000000000000000000 ) ) ;
#85 = DIRECTION ( 'NONE',  ( 0.0000000000000000000, 1.000000000000000000, 0.0000000000000000000 ) ) ;
#86 = DIRECTION ( 'NONE',  ( 0.0000000000000000000, 4.139628069689517000E-020, -1.000000000000000000 ) ) ;
#87 = EDGE_CURVE ( 'NONE', #71, #61, #34, .T. ) ;
#88 = PRODUCT_DEFINITION_CONTEXT ( 'detailed design', #171, 'design' ) ;
#89 =( GEOMETRIC_REPRESENTATION_CONTEXT ( 3 ) GLOBAL_UNCERTAINTY_ASSIGNED_CONTEXT ( ( #139 ) ) GLOBAL_UNIT_ASSIGNED_CONTEXT ( ( #63, #81, #24 ) ) REPRESENTATION_CONTEXT ( 'NONE', 'WORKASPACE' ) );
#90 = SURFACE_STYLE_FILL_AREA ( #92 ) ;
#91 = DIRECTION ( 'NONE',  ( 0.0000000000000000000, 4.139628069689517000E-020, -1.000000000000000000 ) ) ;
#92 = FILL_AREA_STYLE ('',( #18 ) ) ;
#93 = CONICAL_SURFACE ( 'NONE', #124, 2414.213562373067400, 1.178097245096168400 ) ;
#94 = CIRCLE ( 'NONE', #44, 1.352550000000007500 ) ;
#95 =( NAMED_UNIT ( * ) PLANE_ANGLE_UNIT ( ) SI_UNIT ( $, .RADIAN. ) );
#96 = EDGE_CURVE ( 'NONE', #105, #166, #50, .T. ) ;
#97 = ORIENTED_EDGE ( 'NONE', *, *, #96, .T. ) ;
#98 = SURFACE_STYLE_FILL_AREA ( #207 ) ;
#99 = ORIENTED_EDGE ( 'NONE', *, *, #11, .T. ) ;
#100 = COLOUR_RGB ( '',0.7921568627450980000, 0.8196078431372548800, 0.9333333333333333500 ) ;
#101 = ADVANCED_FACE ( 'NONE', ( #168 ), #202, .T. ) ;
#102 = CARTESIAN_POINT ( 'NONE',  ( 1.656396028186756800E-016, 1.352550000000003500, 5.599053945658570100E-020 ) ) ;
#103 = DIRECTION ( 'NONE',  ( 0.0000000000000000000, -1.000000000000000000, 0.0000000000000000000 ) ) ;
#104 = EDGE_CURVE ( 'NONE', #58, #105, #113, .T. ) ;
#105 = VERTEX_POINT ( 'NONE', #204 ) ;
#106 = PRESENTATION_STYLE_ASSIGNMENT (( #214 ) ) ;
#107 = DIRECTION ( 'NONE',  ( 8.659560562354873700E-017, -0.7071067811865426900, -0.7071067811865523500 ) ) ;
#108 = ORIENTED_EDGE ( 'NONE', *, *, #189, .T. ) ;
#109 = CARTESIAN_POINT ( 'NONE',  ( 0.0000000000000000000, 2.651855865060347500E-018, -64.06024455378774000 ) ) ;
#110 = ORIENTED_EDGE ( 'NONE', *, *, #200, .T. ) ;
#111 = CARTESIAN_POINT ( 'NONE',  ( 1.490756425368083400E-016, -1.082040000000006300, 8.274701370804404700E-017 ) ) ;
#112 = CARTESIAN_POINT ( 'NONE',  ( 0.0000000000000000000, -3.427272846358197000E-036, 8.279180613960932500E-017 ) ) ;
#113 = LINE ( 'NONE', #144, #75 ) ;
#114 = PRODUCT_DEFINITION_SHAPE ( 'NONE', 'NONE',  #147 ) ;
#115 = ORIENTED_EDGE ( 'NONE', *, *, #20, .T. ) ;
#116 = DIRECTION ( 'NONE',  ( 0.0000000000000000000, 0.7071067811865426900, -0.7071067811865523500 ) ) ;
#117 = AXIS2_PLACEMENT_3D ( 'NONE', #193, #84, #208 ) ;
#118 = FILL_AREA_STYLE_COLOUR ( '', #57 ) ;
#119 =( LENGTH_UNIT ( ) NAMED_UNIT ( * ) SI_UNIT ( .MILLI., .METRE. ) );
#120 = ORIENTED_EDGE ( 'NONE', *, *, #140, .T. ) ;
#121 = LINE ( 'NONE', #194, #167 ) ;
#122 = CARTESIAN_POINT ( 'NONE',  ( 0.0000000000000000000, 0.0000000000000000000, 0.0000000000000000000 ) ) ;
#123 = ORIENTED_EDGE ( 'NONE', *, *, #213, .T. ) ;
#124 = AXIS2_PLACEMENT_3D ( 'NONE', #47, #175, #176 ) ;
#125 = ORIENTED_EDGE ( 'NONE', *, *, #189, .F. ) ;
#126 = SHAPE_DEFINITION_REPRESENTATION ( #114, #30 ) ;
#127 = DIRECTION ( 'NONE',  ( 0.0000000000000000000, 0.0000000000000000000, 1.000000000000000000 ) ) ;
#128 = CYLINDRICAL_SURFACE ( 'NONE', #117, 1.352550000000003500 ) ;
#129 = CARTESIAN_POINT ( 'NONE',  ( 0.0000000000000000000, -1.352550000000007700, -63.50000000000000000 ) ) ;
#130 = LINE ( 'NONE', #102, #137 ) ;
#131 =( NAMED_UNIT ( * ) SI_UNIT ( $, .STERADIAN. ) SOLID_ANGLE_UNIT ( ) );
#132 = PRODUCT_CONTEXT ( 'NONE', #151, 'mechanical' ) ;
#133 = ADVANCED_FACE ( 'NONE', ( #172 ), #39, .T. ) ;
#134 = SURFACE_SIDE_STYLE ('',( #98 ) ) ;
#135 = AXIS2_PLACEMENT_3D ( 'NONE', #159, #127, #184 ) ;
#136 = LINE ( 'NONE', #77, #141 ) ;
#137 = VECTOR ( 'NONE', #181, 1000.000000000000000 ) ;
#138 = DIRECTION ( 'NONE',  ( -0.0000000000000000000, -4.139628069689517000E-020, 1.000000000000000000 ) ) ;
#139 = UNCERTAINTY_MEASURE_WITH_UNIT (LENGTH_MEASURE( 1.000000000000000100E-005 ), #63, 'distance_accuracy_value', 'NONE');
#140 = EDGE_CURVE ( 'NONE', #71, #105, #136, .T. ) ;
#141 = VECTOR ( 'NONE', #107, 1000.000000000000000 ) ;
#142 = ORIENTED_EDGE ( 'NONE', *, *, #200, .F. ) ;
#143 = ORIENTED_EDGE ( 'NONE', *, *, #11, .F. ) ;
#144 = CARTESIAN_POINT ( 'NONE',  ( 0.0000000000000000000, -1.352550000000003500, -5.599053945658570100E-020 ) ) ;
#145 = CARTESIAN_POINT ( 'NONE',  ( 0.0000000000000000000, -3.427272846358196400E-036, 8.279180613960932500E-017 ) ) ;
#146 = ORIENTED_EDGE ( 'NONE', *, *, #213, .F. ) ;
#147 = PRODUCT_DEFINITION ( 'UNKNOWN', '', #1, #88 ) ;
#148 = DIRECTION ( 'NONE',  ( -0.0000000000000000000, -4.139628069689517000E-020, 1.000000000000000000 ) ) ;
#149 = CARTESIAN_POINT ( 'NONE',  ( 0.0000000000000000000, 1.082040000000006300, 8.283659857117459000E-017 ) ) ;
#150 = ADVANCED_FACE ( 'NONE', ( #68 ), #60, .F. ) ;
#151 = APPLICATION_CONTEXT ( 'automotive_design' ) ;
#152 =( GEOMETRIC_REPRESENTATION_CONTEXT ( 3 ) GLOBAL_UNCERTAINTY_ASSIGNED_CONTEXT ( ( #2 ) ) GLOBAL_UNIT_ASSIGNED_CONTEXT ( ( #119, #10, #8 ) ) REPRESENTATION_CONTEXT ( 'NONE', 'WORKASPACE' ) );
#153 = ORIENTED_EDGE ( 'NONE', *, *, #87, .F. ) ;
#154 = DIRECTION ( 'NONE',  ( 0.0000000000000000000, 1.000000000000000000, 4.139628069689855300E-020 ) ) ;
#155 = DIRECTION ( 'NONE',  ( -0.0000000000000000000, -4.139628069689517000E-020, 1.000000000000000000 ) ) ;
#156 = STYLED_ITEM ( 'NONE', ( #3 ), #30 ) ;
#157 = CLOSED_SHELL ( 'NONE', ( #101, #190, #178, #150, #180, #42, #133 ) ) ;
#158 = CIRCLE ( 'NONE', #76, 1.082040000000006300 ) ;
#159 = CARTESIAN_POINT ( 'NONE',  ( 0.0000000000000000000, 0.0000000000000000000, 0.0000000000000000000 ) ) ;
#160 = ORIENTED_EDGE ( 'NONE', *, *, #7, .T. ) ;
#161 = FACE_OUTER_BOUND ( 'NONE', #196, .T. ) ;
#162 = FACE_OUTER_BOUND ( 'NONE', #179, .T. ) ;
#163 = SURFACE_STYLE_USAGE ( .BOTH. , #134 ) ;
#164 = DIRECTION ( 'NONE',  ( 0.0000000000000000000, -1.000000000000000000, 0.0000000000000000000 ) ) ;
#165 = DIRECTION ( 'NONE',  ( 0.0000000000000000000, 1.000000000000000000, 0.0000000000000000000 ) ) ;
#166 = VERTEX_POINT ( 'NONE', #6 ) ;
#167 = VECTOR ( 'NONE', #177, 1000.000000000000000 ) ;
#168 = FACE_OUTER_BOUND ( 'NONE', #183, .T. ) ;
#169 = DIRECTION ( 'NONE',  ( 0.0000000000000000000, 4.139628069689517000E-020, -1.000000000000000000 ) ) ;
#170 = DIRECTION ( 'NONE',  ( 0.0000000000000000000, 1.000000000000000000, 4.139628069689517000E-020 ) ) ;
#171 = APPLICATION_CONTEXT ( 'automotive_design' ) ;
#172 = FACE_OUTER_BOUND ( 'NONE', #173, .T. ) ;
#173 = EDGE_LOOP ( 'NONE', ( #64, #146, #110, #27 ) ) ;
#174 = DIRECTION ( 'NONE',  ( 0.0000000000000000000, 1.000000000000000000, 4.139628069689855300E-020 ) ) ;
#175 = DIRECTION ( 'NONE',  ( -0.0000000000000000000, -4.139628069689517000E-020, 1.000000000000000000 ) ) ;
#176 = DIRECTION ( 'NONE',  ( 0.0000000000000000000, -1.000000000000000000, 0.0000000000000000000 ) ) ;
#177 = DIRECTION ( 'NONE',  ( 0.0000000000000000000, -0.9238795325112851800, 0.3826834323650935000 ) ) ;
#178 = ADVANCED_FACE ( 'NONE', ( #161 ), #93, .T. ) ;
#179 = EDGE_LOOP ( 'NONE', ( #49, #115, #73, #97 ) ) ;
#180 = ADVANCED_FACE ( 'NONE', ( #188 ), #48, .T. ) ;
#181 = DIRECTION ( 'NONE',  ( -0.0000000000000000000, -4.139628069689517000E-020, 1.000000000000000000 ) ) ;
#182 = CARTESIAN_POINT ( 'NONE',  ( 0.0000000000000000000, 2.628663824252843600E-018, -63.50000000000000000 ) ) ;
#183 = EDGE_LOOP ( 'NONE', ( #153, #120, #143, #142 ) ) ;
#184 = DIRECTION ( 'NONE',  ( 1.000000000000000000, 0.0000000000000000000, 0.0000000000000000000 ) ) ;
#185 = ORIENTED_EDGE ( 'NONE', *, *, #33, .T. ) ;
#186 = ORIENTED_EDGE ( 'NONE', *, *, #104, .F. ) ;
#187 = DIRECTION ( 'NONE',  ( 0.0000000000000000000, 4.139628069689517000E-020, -1.000000000000000000 ) ) ;
#188 = FACE_OUTER_BOUND ( 'NONE', #13, .T. ) ;
#189 = EDGE_CURVE ( 'NONE', #9, #58, #121, .T. ) ;
#190 = ADVANCED_FACE ( 'NONE', ( #210 ), #128, .T. ) ;
#191 = CARTESIAN_POINT ( 'NONE',  ( 0.0000000000000000000, -3.427272846358197000E-036, 8.279180613960932500E-017 ) ) ;
#192 = EDGE_LOOP ( 'NONE', ( #123, #79 ) ) ;
#193 = CARTESIAN_POINT ( 'NONE',  ( 0.0000000000000000000, 0.0000000000000000000, 0.0000000000000000000 ) ) ;
#194 = CARTESIAN_POINT ( 'NONE',  ( 0.0000000000000000000, 2.651855865060347500E-018, -64.06024455378774000 ) ) ;
#195 = DIRECTION ( 'NONE',  ( 1.131426112287698500E-016, 0.9238795325112851800, 0.3826834323650935000 ) ) ;
#196 = EDGE_LOOP ( 'NONE', ( #125, #17, #55 ) ) ;
#197 = VECTOR ( 'NONE', #116, 1000.000000000000000 ) ;
#198 = DIRECTION ( 'NONE',  ( 0.0000000000000000000, -1.000000000000000000, 0.0000000000000000000 ) ) ;
#199 = DIRECTION ( 'NONE',  ( -0.0000000000000000000, -4.139628069689517000E-020, 1.000000000000000000 ) ) ;
#200 = EDGE_CURVE ( 'NONE', #61, #166, #22, .T. ) ;
#201 = ORIENTED_EDGE ( 'NONE', *, *, #20, .F. ) ;
#202 = CONICAL_SURFACE ( 'NONE', #56, 1.082040000000006300, 0.7853981633974415100 ) ;
#203 = LINE ( 'NONE', #67, #40 ) ;
#204 = CARTESIAN_POINT ( 'NONE',  ( 0.0000000000000000000, -1.352550000000003500, -0.2705100000000008100 ) ) ;
#205 = CYLINDRICAL_SURFACE ( 'NONE', #26, 1.352550000000003500 ) ;
#206 = CARTESIAN_POINT ( 'NONE',  ( 1.656396028186762300E-016, 1.352550000000007700, -63.50000000000000000 ) ) ;
#207 = FILL_AREA_STYLE ('',( #118 ) ) ;
#208 = DIRECTION ( 'NONE',  ( 0.0000000000000000000, -1.000000000000000000, -4.139628069689516400E-020 ) ) ;
#209 = CARTESIAN_POINT ( 'NONE',  ( 0.0000000000000000000, 1.082040000000006300, 8.283659857117459000E-017 ) ) ;
#210 = FACE_OUTER_BOUND ( 'NONE', #32, .T. ) ;
#211 = CARTESIAN_POINT ( 'NONE',  ( 0.0000000000000000000, 1.119810789131714700E-020, -0.2705100000000008100 ) ) ;
#212 =( LENGTH_UNIT ( ) NAMED_UNIT ( * ) SI_UNIT ( .MILLI., .METRE. ) );
#213 = EDGE_CURVE ( 'NONE', #61, #71, #158, .T. ) ;
#214 = SURFACE_STYLE_USAGE ( .BOTH. , #69 ) ;
ENDSEC;
END-ISO-10303-21;
