ISO-10303-21;
HEADER;
FILE_DESCRIPTION (( 'STEP AP214' ),
    '1' );
FILE_NAME ('03-0322.STEP',
    '2020-07-23T06:44:27',
    ( '' ),
    ( '' ),
    'SwSTEP 2.0',
    'SolidWorks 2014',
    '' );
FILE_SCHEMA (( 'AUTOMOTIVE_DESIGN' ));
ENDSEC;

DATA;
#1 = CARTESIAN_POINT ( 'NONE',  ( 0.0000000000000000000, -1.263650000000003500, -9.304296220705645200E-021 ) ) ;
#2 = DIRECTION ( 'NONE',  ( 0.0000000000000000000, 1.000000000000000000, 0.0000000000000000000 ) ) ;
#3 = ADVANCED_FACE ( 'NONE', ( #122 ), #213, .T. ) ;
#4 = DIRECTION ( 'NONE',  ( -0.0000000000000000000, -7.363032659918188700E-021, 1.000000000000000000 ) ) ;
#5 = DIRECTION ( 'NONE',  ( 0.0000000000000000000, 1.000000000000000000, 7.363032659919469100E-021 ) ) ;
#6 = APPLICATION_CONTEXT ( 'automotive_design' ) ;
#7 = DIRECTION ( 'NONE',  ( -0.0000000000000000000, -7.363032659918188700E-021, 1.000000000000000000 ) ) ;
#8 = ORIENTED_EDGE ( 'NONE', *, *, #125, .F. ) ;
#9 = EDGE_CURVE ( 'NONE', #102, #144, #57, .T. ) ;
#10 = UNCERTAINTY_MEASURE_WITH_UNIT (LENGTH_MEASURE( 1.000000000000000100E-005 ), #95, 'distance_accuracy_value', 'NONE');
#11 = SURFACE_STYLE_FILL_AREA ( #130 ) ;
#12 = ORIENTED_EDGE ( 'NONE', *, *, #9, .T. ) ;
#13 = FACE_OUTER_BOUND ( 'NONE', #66, .T. ) ;
#14 = AXIS2_PLACEMENT_3D ( 'NONE', #199, #131, #83 ) ;
#15 = MANIFOLD_SOLID_BREP ( '¸ðµû±â1', #35 ) ;
#16 = ORIENTED_EDGE ( 'NONE', *, *, #193, .T. ) ;
#17 =( NAMED_UNIT ( * ) SI_UNIT ( $, .STERADIAN. ) SOLID_ANGLE_UNIT ( ) );
#18 = EDGE_CURVE ( 'NONE', #101, #155, #104, .T. ) ;
#19 = SURFACE_STYLE_USAGE ( .BOTH. , #212 ) ;
#20 = PLANE ( 'NONE',  #63 ) ;
#21 =( NAMED_UNIT ( * ) SI_UNIT ( $, .STERADIAN. ) SOLID_ANGLE_UNIT ( ) );
#22 =( NAMED_UNIT ( * ) PLANE_ANGLE_UNIT ( ) SI_UNIT ( $, .RADIAN. ) );
#23 = DIRECTION ( 'NONE',  ( 0.0000000000000000000, 7.363032659918190200E-021, -1.000000000000000000 ) ) ;
#24 = CARTESIAN_POINT ( 'NONE',  ( 0.0000000000000000000, 4.441749452095647000E-019, -60.32499999999999600 ) ) ;
#25 = CARTESIAN_POINT ( 'NONE',  ( 1.238019942194057600E-016, -1.010920000000012500, 7.736415080204070600E-017 ) ) ;
#26 = VECTOR ( 'NONE', #166, 1000.000000000000000 ) ;
#27 = AXIS2_PLACEMENT_3D ( 'NONE', #58, #4, #117 ) ;
#28 = VECTOR ( 'NONE', #133, 1000.000000000000000 ) ;
#29 = FILL_AREA_STYLE_COLOUR ( '', #87 ) ;
#30 = ORIENTED_EDGE ( 'NONE', *, *, #85, .T. ) ;
#31 = FACE_OUTER_BOUND ( 'NONE', #111, .T. ) ;
#32 = CARTESIAN_POINT ( 'NONE',  ( 0.0000000000000000000, 0.0000000000000000000, 0.0000000000000000000 ) ) ;
#33 = ORIENTED_EDGE ( 'NONE', *, *, #89, .T. ) ;
#34 = DIRECTION ( 'NONE',  ( 0.0000000000000000000, -1.000000000000000000, -7.363032659918188700E-021 ) ) ;
#35 = CLOSED_SHELL ( 'NONE', ( #96, #53, #178, #108, #134, #3, #113 ) ) ;
#36 = DIRECTION ( 'NONE',  ( 0.0000000000000000000, 7.363032659918188700E-021, -1.000000000000000000 ) ) ;
#37 = DIRECTION ( 'NONE',  ( 0.0000000000000000000, 7.363032659918190200E-021, -1.000000000000000000 ) ) ;
#38 = DIRECTION ( 'NONE',  ( 0.0000000000000000000, -1.000000000000000000, 0.0000000000000000000 ) ) ;
#39 = CARTESIAN_POINT ( 'NONE',  ( 0.0000000000000000000, -5.696895753318222200E-037, 7.737159423901727600E-017 ) ) ;
#40 = DIRECTION ( 'NONE',  ( 0.0000000000000000000, 0.7071067811865411300, -0.7071067811865539000 ) ) ;
#41 = CIRCLE ( 'NONE', #214, 1.010920000000012500 ) ;
#42 = PRODUCT_CONTEXT ( 'NONE', #135, 'mechanical' ) ;
#43 =( LENGTH_UNIT ( ) NAMED_UNIT ( * ) SI_UNIT ( .MILLI., .METRE. ) );
#44 = UNCERTAINTY_MEASURE_WITH_UNIT (LENGTH_MEASURE( 1.000000000000000100E-005 ), #68, 'distance_accuracy_value', 'NONE');
#45 = EDGE_LOOP ( 'NONE', ( #196, #30, #67, #55 ) ) ;
#46 = VECTOR ( 'NONE', #75, 1000.000000000000000 ) ;
#47 = COLOUR_RGB ( '',0.7921568627450980000, 0.8196078431372548800, 0.9333333333333333500 ) ;
#48 = EDGE_LOOP ( 'NONE', ( #185, #179, #64 ) ) ;
#49 = PRODUCT_DEFINITION_SHAPE ( 'NONE', 'NONE',  #168 ) ;
#50 = VECTOR ( 'NONE', #40, 1000.000000000000000 ) ;
#51 = EDGE_CURVE ( 'NONE', #155, #129, #94, .T. ) ;
#52 = EDGE_CURVE ( 'NONE', #144, #102, #41, .T. ) ;
#53 = ADVANCED_FACE ( 'NONE', ( #81 ), #157, .T. ) ;
#54 = FILL_AREA_STYLE_COLOUR ( '', #47 ) ;
#55 = ORIENTED_EDGE ( 'NONE', *, *, #125, .T. ) ;
#56 = EDGE_CURVE ( 'NONE', #207, #129, #211, .T. ) ;
#57 = CIRCLE ( 'NONE', #188, 1.010920000000012500 ) ;
#58 = CARTESIAN_POINT ( 'NONE',  ( 0.0000000000000000000, 4.441749452095647000E-019, -60.32499999999999600 ) ) ;
#59 = CARTESIAN_POINT ( 'NONE',  ( 0.0000000000000000000, 0.0000000000000000000, 0.0000000000000000000 ) ) ;
#60 = FACE_OUTER_BOUND ( 'NONE', #48, .T. ) ;
#61 = CARTESIAN_POINT ( 'NONE',  ( 0.0000000000000000000, -5.696895753318223000E-037, 7.737159423901727600E-017 ) ) ;
#62 = APPLICATION_PROTOCOL_DEFINITION ( 'draft international standard', 'automotive_design', 1998, #6 ) ;
#63 = AXIS2_PLACEMENT_3D ( 'NONE', #183, #36, #181 ) ;
#64 = ORIENTED_EDGE ( 'NONE', *, *, #193, .F. ) ;
#65 = AXIS2_PLACEMENT_3D ( 'NONE', #148, #23, #5 ) ;
#66 = EDGE_LOOP ( 'NONE', ( #152, #33, #141 ) ) ;
#67 = ORIENTED_EDGE ( 'NONE', *, *, #56, .T. ) ;
#68 =( LENGTH_UNIT ( ) NAMED_UNIT ( * ) SI_UNIT ( .MILLI., .METRE. ) );
#69 = ORIENTED_EDGE ( 'NONE', *, *, #52, .T. ) ;
#70 = MECHANICAL_DESIGN_GEOMETRIC_PRESENTATION_REPRESENTATION (  '', ( #92 ), #195 ) ;
#71 = FACE_OUTER_BOUND ( 'NONE', #162, .T. ) ;
#72 = DIRECTION ( 'NONE',  ( 0.0000000000000000000, 1.000000000000000000, 7.363032659919469100E-021 ) ) ;
#73 = VECTOR ( 'NONE', #100, 1000.000000000000000 ) ;
#74 =( NAMED_UNIT ( * ) SI_UNIT ( $, .STERADIAN. ) SOLID_ANGLE_UNIT ( ) );
#75 = DIRECTION ( 'NONE',  ( 8.659560562354855200E-017, -0.7071067811865411300, -0.7071067811865539000 ) ) ;
#76 = ORIENTED_EDGE ( 'NONE', *, *, #9, .F. ) ;
#77 = DIRECTION ( 'NONE',  ( 1.000000000000000000, 0.0000000000000000000, 0.0000000000000000000 ) ) ;
#78 = CIRCLE ( 'NONE', #105, 1.263650000000003500 ) ;
#79 = AXIS2_PLACEMENT_3D ( 'NONE', #32, #160, #34 ) ;
#80 = AXIS2_PLACEMENT_3D ( 'NONE', #39, #197, #72 ) ;
#81 = FACE_OUTER_BOUND ( 'NONE', #158, .T. ) ;
#82 = CARTESIAN_POINT ( 'NONE',  ( 0.0000000000000000000, 1.860859244141091900E-021, -0.2527299999999956800 ) ) ;
#83 = DIRECTION ( 'NONE',  ( 0.0000000000000000000, -1.000000000000000000, -7.363032659918188700E-021 ) ) ;
#84 = CARTESIAN_POINT ( 'NONE',  ( 0.0000000000000000000, 1.010920000000012500, 7.737903767599383300E-017 ) ) ;
#85 = EDGE_CURVE ( 'NONE', #101, #207, #206, .T. ) ;
#86 = CARTESIAN_POINT ( 'NONE',  ( 0.0000000000000000000, -6.915003749025671200E-018, 939.1515790319073200 ) ) ;
#87 = COLOUR_RGB ( '',0.7921568627450980000, 0.8196078431372548800, 0.9333333333333333500 ) ;
#88 = ORIENTED_EDGE ( 'NONE', *, *, #198, .F. ) ;
#89 = EDGE_CURVE ( 'NONE', #191, #207, #187, .T. ) ;
#90 = ORIENTED_EDGE ( 'NONE', *, *, #198, .T. ) ;
#91 = CONICAL_SURFACE ( 'NONE', #80, 1.010920000000012500, 0.7853981633974392900 ) ;
#92 = STYLED_ITEM ( 'NONE', ( #140 ), #15 ) ;
#93 = ORIENTED_EDGE ( 'NONE', *, *, #159, .F. ) ;
#94 = CIRCLE ( 'NONE', #189, 1.263650000000003500 ) ;
#95 =( LENGTH_UNIT ( ) NAMED_UNIT ( * ) SI_UNIT ( .MILLI., .METRE. ) );
#96 = ADVANCED_FACE ( 'NONE', ( #31 ), #208, .T. ) ;
#97 = AXIS2_PLACEMENT_3D ( 'NONE', #86, #203, #115 ) ;
#98 = CARTESIAN_POINT ( 'NONE',  ( 1.547524927742557200E-016, 1.263650000000003500, 9.304296220705645200E-021 ) ) ;
#99 = CARTESIAN_POINT ( 'NONE',  ( 1.392772434968307400E-016, -1.010920000000012500, 7.736415080204070600E-017 ) ) ;
#100 = DIRECTION ( 'NONE',  ( -0.0000000000000000000, -7.363032659918188700E-021, 1.000000000000000000 ) ) ;
#101 = VERTEX_POINT ( 'NONE', #150 ) ;
#102 = VERTEX_POINT ( 'NONE', #169 ) ;
#103 = CARTESIAN_POINT ( 'NONE',  ( 0.0000000000000000000, -1.263650000000003500, -0.2527299999999956800 ) ) ;
#104 = LINE ( 'NONE', #98, #28 ) ;
#105 = AXIS2_PLACEMENT_3D ( 'NONE', #82, #170, #186 ) ;
#106 = AXIS2_PLACEMENT_3D ( 'NONE', #24, #7, #38 ) ;
#107 = CONICAL_SURFACE ( 'NONE', #128, 2414.213562373073700, 1.178097245096169300 ) ;
#108 = ADVANCED_FACE ( 'NONE', ( #116 ), #20, .F. ) ;
#109 =( NAMED_UNIT ( * ) PLANE_ANGLE_UNIT ( ) SI_UNIT ( $, .RADIAN. ) );
#110 = DIRECTION ( 'NONE',  ( -0.0000000000000000000, -7.363032659918188700E-021, 1.000000000000000000 ) ) ;
#111 = EDGE_LOOP ( 'NONE', ( #146, #90, #138, #93 ) ) ;
#112 = CARTESIAN_POINT ( 'NONE',  ( 0.0000000000000000000, 4.480289108925177300E-019, -60.84842096809276800 ) ) ;
#113 = ADVANCED_FACE ( 'NONE', ( #71 ), #91, .T. ) ;
#114 = CARTESIAN_POINT ( 'NONE',  ( 0.0000000000000000000, 4.480289108925177300E-019, -60.84842096809276800 ) ) ;
#115 = DIRECTION ( 'NONE',  ( 0.0000000000000000000, -1.000000000000000000, 0.0000000000000000000 ) ) ;
#116 = FACE_OUTER_BOUND ( 'NONE', #120, .T. ) ;
#117 = DIRECTION ( 'NONE',  ( 0.0000000000000000000, -1.000000000000000000, 0.0000000000000000000 ) ) ;
#118 = CARTESIAN_POINT ( 'NONE',  ( 0.0000000000000000000, -6.915003749025671200E-018, 939.1515790319073200 ) ) ;
#119 = DIRECTION ( 'NONE',  ( 0.0000000000000000000, -1.000000000000000000, 0.0000000000000000000 ) ) ;
#120 = EDGE_LOOP ( 'NONE', ( #12, #69 ) ) ;
#121 =( GEOMETRIC_REPRESENTATION_CONTEXT ( 3 ) GLOBAL_UNCERTAINTY_ASSIGNED_CONTEXT ( ( #190 ) ) GLOBAL_UNIT_ASSIGNED_CONTEXT ( ( #43, #109, #17 ) ) REPRESENTATION_CONTEXT ( 'NONE', 'WORKASPACE' ) );
#122 = FACE_OUTER_BOUND ( 'NONE', #45, .T. ) ;
#123 = ORIENTED_EDGE ( 'NONE', *, *, #18, .T. ) ;
#124 = CONICAL_SURFACE ( 'NONE', #97, 2414.213562373073700, 1.178097245096169300 ) ;
#125 = EDGE_CURVE ( 'NONE', #129, #155, #78, .T. ) ;
#126 = FILL_AREA_STYLE ('',( #29 ) ) ;
#127 = DIRECTION ( 'NONE',  ( 0.0000000000000000000, 1.000000000000000000, 7.363032659919469100E-021 ) ) ;
#128 = AXIS2_PLACEMENT_3D ( 'NONE', #118, #184, #119 ) ;
#129 = VERTEX_POINT ( 'NONE', #103 ) ;
#130 = FILL_AREA_STYLE ('',( #54 ) ) ;
#131 = DIRECTION ( 'NONE',  ( -0.0000000000000000000, -7.363032659918188700E-021, 1.000000000000000000 ) ) ;
#132 = STYLED_ITEM ( 'NONE', ( #154 ), #167 ) ;
#133 = DIRECTION ( 'NONE',  ( -0.0000000000000000000, -7.363032659918188700E-021, 1.000000000000000000 ) ) ;
#134 = ADVANCED_FACE ( 'NONE', ( #13 ), #124, .T. ) ;
#135 = APPLICATION_CONTEXT ( 'automotive_design' ) ;
#136 = ORIENTED_EDGE ( 'NONE', *, *, #51, .T. ) ;
#137 = PRODUCT_RELATED_PRODUCT_CATEGORY ( 'part', '', ( #165 ) ) ;
#138 = ORIENTED_EDGE ( 'NONE', *, *, #51, .F. ) ;
#139 = LINE ( 'NONE', #84, #50 ) ;
#140 = PRESENTATION_STYLE_ASSIGNMENT (( #19 ) ) ;
#141 = ORIENTED_EDGE ( 'NONE', *, *, #85, .F. ) ;
#142 = SURFACE_SIDE_STYLE ('',( #202 ) ) ;
#143 = AXIS2_PLACEMENT_3D ( 'NONE', #59, #164, #77 ) ;
#144 = VERTEX_POINT ( 'NONE', #99 ) ;
#145 = CARTESIAN_POINT ( 'NONE',  ( 0.0000000000000000000, -5.696895753318223000E-037, 7.737159423901727600E-017 ) ) ;
#146 = ORIENTED_EDGE ( 'NONE', *, *, #52, .F. ) ;
#147 = DIRECTION ( 'NONE',  ( 0.0000000000000000000, 1.000000000000000000, 7.363032659919469100E-021 ) ) ;
#148 = CARTESIAN_POINT ( 'NONE',  ( 0.0000000000000000000, -5.696895753318222200E-037, 7.737159423901727600E-017 ) ) ;
#149 = CARTESIAN_POINT ( 'NONE',  ( 0.0000000000000000000, -1.263650000000007500, -60.32499999999999600 ) ) ;
#150 = CARTESIAN_POINT ( 'NONE',  ( 1.547524927742561900E-016, 1.263650000000007500, -60.32499999999999600 ) ) ;
#151 = DIRECTION ( 'NONE',  ( 1.131426112287698800E-016, 0.9238795325112855200, 0.3826834323650926700 ) ) ;
#152 = ORIENTED_EDGE ( 'NONE', *, *, #173, .F. ) ;
#153 = PRESENTATION_LAYER_ASSIGNMENT (  '', '', ( #132 ) ) ;
#154 = PRESENTATION_STYLE_ASSIGNMENT (( #156 ) ) ;
#155 = VERTEX_POINT ( 'NONE', #200 ) ;
#156 = SURFACE_STYLE_USAGE ( .BOTH. , #142 ) ;
#157 = CYLINDRICAL_SURFACE ( 'NONE', #14, 1.263650000000003500 ) ;
#158 = EDGE_LOOP ( 'NONE', ( #16, #123, #136, #174 ) ) ;
#159 = EDGE_CURVE ( 'NONE', #102, #155, #139, .T. ) ;
#160 = DIRECTION ( 'NONE',  ( -0.0000000000000000000, -7.363032659918188700E-021, 1.000000000000000000 ) ) ;
#161 = DIRECTION ( 'NONE',  ( -0.0000000000000000000, -7.363032659918188700E-021, 1.000000000000000000 ) ) ;
#162 = EDGE_LOOP ( 'NONE', ( #88, #76, #209, #8 ) ) ;
#163 = MECHANICAL_DESIGN_GEOMETRIC_PRESENTATION_REPRESENTATION (  '', ( #132 ), #175 ) ;
#164 = DIRECTION ( 'NONE',  ( 0.0000000000000000000, 0.0000000000000000000, 1.000000000000000000 ) ) ;
#165 = PRODUCT ( '03-0322', '03-0322', '', ( #42 ) ) ;
#166 = DIRECTION ( 'NONE',  ( 0.0000000000000000000, -0.9238795325112855200, 0.3826834323650926700 ) ) ;
#167 = ADVANCED_BREP_SHAPE_REPRESENTATION ( '03-0322', ( #15, #143 ), #121 ) ;
#168 = PRODUCT_DEFINITION ( 'UNKNOWN', '', #177, #172 ) ;
#169 = CARTESIAN_POINT ( 'NONE',  ( 0.0000000000000000000, 1.010920000000012500, 7.737903767599383300E-017 ) ) ;
#170 = DIRECTION ( 'NONE',  ( 0.0000000000000000000, 7.363032659918190200E-021, -1.000000000000000000 ) ) ;
#171 = APPLICATION_PROTOCOL_DEFINITION ( 'draft international standard', 'automotive_design', 1998, #135 ) ;
#172 = PRODUCT_DEFINITION_CONTEXT ( 'detailed design', #6, 'design' ) ;
#173 = EDGE_CURVE ( 'NONE', #191, #101, #192, .T. ) ;
#174 = ORIENTED_EDGE ( 'NONE', *, *, #56, .F. ) ;
#175 =( GEOMETRIC_REPRESENTATION_CONTEXT ( 3 ) GLOBAL_UNCERTAINTY_ASSIGNED_CONTEXT ( ( #44 ) ) GLOBAL_UNIT_ASSIGNED_CONTEXT ( ( #68, #22, #74 ) ) REPRESENTATION_CONTEXT ( 'NONE', 'WORKASPACE' ) );
#176 = CIRCLE ( 'NONE', #106, 1.263650000000007300 ) ;
#177 = PRODUCT_DEFINITION_FORMATION_WITH_SPECIFIED_SOURCE ( 'ANY', '', #165, .NOT_KNOWN. ) ;
#178 = ADVANCED_FACE ( 'NONE', ( #60 ), #107, .T. ) ;
#179 = ORIENTED_EDGE ( 'NONE', *, *, #173, .T. ) ;
#180 = VECTOR ( 'NONE', #151, 1000.000000000000000 ) ;
#181 = DIRECTION ( 'NONE',  ( 0.0000000000000000000, 1.000000000000000000, 7.363032659918188700E-021 ) ) ;
#182 = CARTESIAN_POINT ( 'NONE',  ( 0.0000000000000000000, 1.860859244141091900E-021, -0.2527299999999956800 ) ) ;
#183 = CARTESIAN_POINT ( 'NONE',  ( 0.0000000000000000000, 1.263649999999999900, 7.738089853523797800E-017 ) ) ;
#184 = DIRECTION ( 'NONE',  ( -0.0000000000000000000, -7.363032659918188700E-021, 1.000000000000000000 ) ) ;
#185 = ORIENTED_EDGE ( 'NONE', *, *, #89, .F. ) ;
#186 = DIRECTION ( 'NONE',  ( 0.0000000000000000000, 1.000000000000000000, 0.0000000000000000000 ) ) ;
#187 = LINE ( 'NONE', #114, #26 ) ;
#188 = AXIS2_PLACEMENT_3D ( 'NONE', #145, #161, #127 ) ;
#189 = AXIS2_PLACEMENT_3D ( 'NONE', #182, #37, #2 ) ;
#190 = UNCERTAINTY_MEASURE_WITH_UNIT (LENGTH_MEASURE( 1.000000000000000100E-005 ), #43, 'distance_accuracy_value', 'NONE');
#191 = VERTEX_POINT ( 'NONE', #201 ) ;
#192 = LINE ( 'NONE', #112, #180 ) ;
#193 = EDGE_CURVE ( 'NONE', #207, #101, #176, .T. ) ;
#194 = LINE ( 'NONE', #25, #46 ) ;
#195 =( GEOMETRIC_REPRESENTATION_CONTEXT ( 3 ) GLOBAL_UNCERTAINTY_ASSIGNED_CONTEXT ( ( #10 ) ) GLOBAL_UNIT_ASSIGNED_CONTEXT ( ( #95, #210, #21 ) ) REPRESENTATION_CONTEXT ( 'NONE', 'WORKASPACE' ) );
#196 = ORIENTED_EDGE ( 'NONE', *, *, #18, .F. ) ;
#197 = DIRECTION ( 'NONE',  ( 0.0000000000000000000, 7.363032659918190200E-021, -1.000000000000000000 ) ) ;
#198 = EDGE_CURVE ( 'NONE', #144, #129, #194, .T. ) ;
#199 = CARTESIAN_POINT ( 'NONE',  ( 0.0000000000000000000, 0.0000000000000000000, 0.0000000000000000000 ) ) ;
#200 = CARTESIAN_POINT ( 'NONE',  ( 1.547524927742557200E-016, 1.263650000000003500, -0.2527299999999956800 ) ) ;
#201 = CARTESIAN_POINT ( 'NONE',  ( 0.0000000000000000000, 4.480289108925177300E-019, -60.84842096809276800 ) ) ;
#202 = SURFACE_STYLE_FILL_AREA ( #126 ) ;
#203 = DIRECTION ( 'NONE',  ( -0.0000000000000000000, -7.363032659918188700E-021, 1.000000000000000000 ) ) ;
#204 = SHAPE_DEFINITION_REPRESENTATION ( #49, #167 ) ;
#205 = PRESENTATION_LAYER_ASSIGNMENT (  '', '', ( #92 ) ) ;
#206 = CIRCLE ( 'NONE', #27, 1.263650000000007300 ) ;
#207 = VERTEX_POINT ( 'NONE', #149 ) ;
#208 = CONICAL_SURFACE ( 'NONE', #65, 1.010920000000012500, 0.7853981633974392900 ) ;
#209 = ORIENTED_EDGE ( 'NONE', *, *, #159, .T. ) ;
#210 =( NAMED_UNIT ( * ) PLANE_ANGLE_UNIT ( ) SI_UNIT ( $, .RADIAN. ) );
#211 = LINE ( 'NONE', #1, #73 ) ;
#212 = SURFACE_SIDE_STYLE ('',( #11 ) ) ;
#213 = CYLINDRICAL_SURFACE ( 'NONE', #79, 1.263650000000003500 ) ;
#214 = AXIS2_PLACEMENT_3D ( 'NONE', #61, #110, #147 ) ;
ENDSEC;
END-ISO-10303-21;
