ISO-10303-21;
HEADER;
FILE_DESCRIPTION (( 'STEP AP214' ),
    '1' );
FILE_NAME ('03-0325.STEP',
    '2020-07-23T06:46:29',
    ( '' ),
    ( '' ),
    'SwSTEP 2.0',
    'SolidWorks 2014',
    '' );
FILE_SCHEMA (( 'AUTOMOTIVE_DESIGN' ));
ENDSEC;

DATA;
#1 = CARTESIAN_POINT ( 'NONE',  ( 0.0000000000000000000, -2.326787755216969700E-019, -57.14999999999999900 ) ) ;
#2 = AXIS2_PLACEMENT_3D ( 'NONE', #183, #115, #147 ) ;
#3 = DIRECTION ( 'NONE',  ( 1.131426112287699800E-016, 0.9238795325112861800, 0.3826834323650912300 ) ) ;
#4 =( NAMED_UNIT ( * ) PLANE_ANGLE_UNIT ( ) SI_UNIT ( $, .RADIAN. ) );
#5 = DIRECTION ( 'NONE',  ( 0.0000000000000000000, -0.9238795325112861800, 0.3826834323650912300 ) ) ;
#6 = EDGE_CURVE ( 'NONE', #52, #140, #60, .T. ) ;
#7 = SHAPE_DEFINITION_REPRESENTATION ( #84, #207 ) ;
#8 = CIRCLE ( 'NONE', #210, 1.187450000000007000 ) ;
#9 = CARTESIAN_POINT ( 'NONE',  ( 0.0000000000000000000, -1.187450000000003400, -0.2374900000000013700 ) ) ;
#10 = LINE ( 'NONE', #18, #110 ) ;
#11 = FACE_OUTER_BOUND ( 'NONE', #195, .T. ) ;
#12 = DIRECTION ( 'NONE',  ( 0.0000000000000000000, -4.071369650423394300E-021, -1.000000000000000000 ) ) ;
#13 = AXIS2_PLACEMENT_3D ( 'NONE', #204, #94, #206 ) ;
#14 = CYLINDRICAL_SURFACE ( 'NONE', #88, 1.187450000000003400 ) ;
#15 =( NAMED_UNIT ( * ) PLANE_ANGLE_UNIT ( ) SI_UNIT ( $, .RADIAN. ) );
#16 = FILL_AREA_STYLE ('',( #41 ) ) ;
#17 = ORIENTED_EDGE ( 'NONE', *, *, #109, .T. ) ;
#18 = CARTESIAN_POINT ( 'NONE',  ( 1.163365473318019300E-016, -0.9499599999999996900, 7.271662699463505000E-017 ) ) ;
#19 = VERTEX_POINT ( 'NONE', #184 ) ;
#20 = SURFACE_STYLE_FILL_AREA ( #16 ) ;
#21 = EDGE_CURVE ( 'NONE', #160, #124, #10, .T. ) ;
#22 = ORIENTED_EDGE ( 'NONE', *, *, #211, .F. ) ;
#23 = STYLED_ITEM ( 'NONE', ( #123 ), #132 ) ;
#24 = ORIENTED_EDGE ( 'NONE', *, *, #199, .F. ) ;
#25 = VECTOR ( 'NONE', #170, 1000.000000000000000 ) ;
#26 =( GEOMETRIC_REPRESENTATION_CONTEXT ( 3 ) GLOBAL_UNCERTAINTY_ASSIGNED_CONTEXT ( ( #56 ) ) GLOBAL_UNIT_ASSIGNED_CONTEXT ( ( #171, #15, #29 ) ) REPRESENTATION_CONTEXT ( 'NONE', 'WORKASPACE' ) );
#27 = ORIENTED_EDGE ( 'NONE', *, *, #109, .F. ) ;
#28 =( GEOMETRIC_REPRESENTATION_CONTEXT ( 3 ) GLOBAL_UNCERTAINTY_ASSIGNED_CONTEXT ( ( #112 ) ) GLOBAL_UNIT_ASSIGNED_CONTEXT ( ( #99, #4, #168 ) ) REPRESENTATION_CONTEXT ( 'NONE', 'WORKASPACE' ) );
#29 =( NAMED_UNIT ( * ) SI_UNIT ( $, .STERADIAN. ) SOLID_ANGLE_UNIT ( ) );
#30 = FILL_AREA_STYLE ('',( #46 ) ) ;
#31 = DIRECTION ( 'NONE',  ( 0.0000000000000000000, -4.071369650423395100E-021, -1.000000000000000000 ) ) ;
#32 = CARTESIAN_POINT ( 'NONE',  ( 0.0000000000000000000, -2.346813108262551400E-019, -57.64185789463993400 ) ) ;
#33 = CARTESIAN_POINT ( 'NONE',  ( 0.0000000000000000000, 2.960405216418688100E-037, 7.271275935632194200E-017 ) ) ;
#34 = DIRECTION ( 'NONE',  ( 0.0000000000000000000, -4.071369650423395100E-021, -1.000000000000000000 ) ) ;
#35 = VERTEX_POINT ( 'NONE', #47 ) ;
#36 = CONICAL_SURFACE ( 'NONE', #176, 0.9499599999999996900, 0.7853981633974533900 ) ;
#37 = CARTESIAN_POINT ( 'NONE',  ( 0.0000000000000000000, 2.960405216418688100E-037, 7.271275935632194200E-017 ) ) ;
#38 = AXIS2_PLACEMENT_3D ( 'NONE', #96, #34, #70 ) ;
#39 = SURFACE_STYLE_FILL_AREA ( #30 ) ;
#40 = CARTESIAN_POINT ( 'NONE',  ( 0.0000000000000000000, -1.187450000000007200, -57.14999999999999900 ) ) ;
#41 = FILL_AREA_STYLE_COLOUR ( '', #103 ) ;
#42 = AXIS2_PLACEMENT_3D ( 'NONE', #155, #71, #137 ) ;
#43 = CARTESIAN_POINT ( 'NONE',  ( 0.0000000000000000000, 0.0000000000000000000, 0.0000000000000000000 ) ) ;
#44 = DIRECTION ( 'NONE',  ( -0.0000000000000000000, 4.071369650423394300E-021, 1.000000000000000000 ) ) ;
#45 = PRODUCT_RELATED_PRODUCT_CATEGORY ( 'part', '', ( #159 ) ) ;
#46 = FILL_AREA_STYLE_COLOUR ( '', #105 ) ;
#47 = CARTESIAN_POINT ( 'NONE',  ( 0.0000000000000000000, 0.9499599999999996900, 7.270889171800883300E-017 ) ) ;
#48 = AXIS2_PLACEMENT_3D ( 'NONE', #163, #58, #179 ) ;
#49 = UNCERTAINTY_MEASURE_WITH_UNIT (LENGTH_MEASURE( 1.000000000000000100E-005 ), #91, 'distance_accuracy_value', 'NONE');
#50 = CARTESIAN_POINT ( 'NONE',  ( 1.308786157482773900E-016, -0.9499599999999996900, 7.271662699463505000E-017 ) ) ;
#51 = FACE_OUTER_BOUND ( 'NONE', #129, .T. ) ;
#52 = VERTEX_POINT ( 'NONE', #32 ) ;
#53 = VECTOR ( 'NONE', #3, 1000.000000000000000 ) ;
#54 = PRODUCT_DEFINITION_FORMATION_WITH_SPECIFIED_SOURCE ( 'ANY', '', #159, .NOT_KNOWN. ) ;
#55 = VECTOR ( 'NONE', #5, 1000.000000000000000 ) ;
#56 = UNCERTAINTY_MEASURE_WITH_UNIT (LENGTH_MEASURE( 1.000000000000000100E-005 ), #171, 'distance_accuracy_value', 'NONE');
#57 = MECHANICAL_DESIGN_GEOMETRIC_PRESENTATION_REPRESENTATION (  '', ( #116 ), #185 ) ;
#58 = DIRECTION ( 'NONE',  ( -0.0000000000000000000, 4.071369650423394300E-021, 1.000000000000000000 ) ) ;
#59 = FACE_OUTER_BOUND ( 'NONE', #148, .T. ) ;
#60 = LINE ( 'NONE', #201, #53 ) ;
#61 = SURFACE_STYLE_USAGE ( .BOTH. , #151 ) ;
#62 = APPLICATION_CONTEXT ( 'automotive_design' ) ;
#63 = EDGE_LOOP ( 'NONE', ( #180, #190, #85, #198 ) ) ;
#64 = DIRECTION ( 'NONE',  ( 0.0000000000000000000, 1.000000000000000000, -4.071369650419903600E-021 ) ) ;
#65 = ORIENTED_EDGE ( 'NONE', *, *, #6, .T. ) ;
#66 = DIRECTION ( 'NONE',  ( 0.0000000000000000000, -1.000000000000000000, 0.0000000000000000000 ) ) ;
#67 = EDGE_LOOP ( 'NONE', ( #196, #65, #27 ) ) ;
#68 = LINE ( 'NONE', #82, #153 ) ;
#69 = APPLICATION_PROTOCOL_DEFINITION ( 'draft international standard', 'automotive_design', 1998, #174 ) ;
#70 = DIRECTION ( 'NONE',  ( 0.0000000000000000000, 1.000000000000000000, -4.071369650419903600E-021 ) ) ;
#71 = DIRECTION ( 'NONE',  ( -0.0000000000000000000, 4.071369650423394300E-021, 1.000000000000000000 ) ) ;
#72 = EDGE_LOOP ( 'NONE', ( #146, #178 ) ) ;
#73 = DIRECTION ( 'NONE',  ( 0.0000000000000000000, 1.000000000000000000, -4.071369650419903600E-021 ) ) ;
#74 = LINE ( 'NONE', #197, #55 ) ;
#75 = ADVANCED_FACE ( 'NONE', ( #11 ), #90, .T. ) ;
#76 = AXIS2_PLACEMENT_3D ( 'NONE', #37, #158, #73 ) ;
#77 = FACE_OUTER_BOUND ( 'NONE', #67, .T. ) ;
#78 = DIRECTION ( 'NONE',  ( -0.0000000000000000000, 4.071369650423394300E-021, 1.000000000000000000 ) ) ;
#79 =( NAMED_UNIT ( * ) PLANE_ANGLE_UNIT ( ) SI_UNIT ( $, .RADIAN. ) );
#80 = EDGE_CURVE ( 'NONE', #35, #19, #98, .T. ) ;
#81 = CARTESIAN_POINT ( 'NONE',  ( 0.0000000000000000000, 0.0000000000000000000, 0.0000000000000000000 ) ) ;
#82 = CARTESIAN_POINT ( 'NONE',  ( 0.0000000000000000000, -1.187450000000003400, 4.834547891395273900E-021 ) ) ;
#83 = PRODUCT_DEFINITION ( 'UNKNOWN', '', #54, #177 ) ;
#84 = PRODUCT_DEFINITION_SHAPE ( 'NONE', 'NONE',  #83 ) ;
#85 = ORIENTED_EDGE ( 'NONE', *, *, #133, .F. ) ;
#86 = CIRCLE ( 'NONE', #87, 0.9499599999999996900 ) ;
#87 = AXIS2_PLACEMENT_3D ( 'NONE', #33, #78, #64 ) ;
#88 = AXIS2_PLACEMENT_3D ( 'NONE', #43, #205, #167 ) ;
#89 = ORIENTED_EDGE ( 'NONE', *, *, #211, .T. ) ;
#90 = CONICAL_SURFACE ( 'NONE', #13, 2414.213562373084200, 1.178097245096170900 ) ;
#91 =( LENGTH_UNIT ( ) NAMED_UNIT ( * ) SI_UNIT ( .MILLI., .METRE. ) );
#92 = ORIENTED_EDGE ( 'NONE', *, *, #97, .T. ) ;
#93 = DIRECTION ( 'NONE',  ( 0.0000000000000000000, 1.000000000000000000, -4.071369650419903600E-021 ) ) ;
#94 = DIRECTION ( 'NONE',  ( -0.0000000000000000000, 4.071369650423394300E-021, 1.000000000000000000 ) ) ;
#95 = SURFACE_STYLE_USAGE ( .BOTH. , #172 ) ;
#96 = CARTESIAN_POINT ( 'NONE',  ( 0.0000000000000000000, 2.960405216418688500E-037, 7.271275935632194200E-017 ) ) ;
#97 = EDGE_CURVE ( 'NONE', #120, #124, #68, .T. ) ;
#98 = LINE ( 'NONE', #119, #164 ) ;
#99 =( LENGTH_UNIT ( ) NAMED_UNIT ( * ) SI_UNIT ( .MILLI., .METRE. ) );
#100 = DIRECTION ( 'NONE',  ( 0.0000000000000000000, -4.071369650423395100E-021, -1.000000000000000000 ) ) ;
#101 = ORIENTED_EDGE ( 'NONE', *, *, #104, .F. ) ;
#102 = AXIS2_PLACEMENT_3D ( 'NONE', #121, #100, #208 ) ;
#103 = COLOUR_RGB ( '',0.7921568627450980000, 0.8196078431372548800, 0.9333333333333333500 ) ;
#104 = EDGE_CURVE ( 'NONE', #124, #19, #142, .T. ) ;
#105 = COLOUR_RGB ( '',0.7921568627450980000, 0.8196078431372548800, 0.9333333333333333500 ) ;
#106 = ORIENTED_EDGE ( 'NONE', *, *, #97, .F. ) ;
#107 = ORIENTED_EDGE ( 'NONE', *, *, #6, .F. ) ;
#108 = PLANE ( 'NONE',  #188 ) ;
#109 = EDGE_CURVE ( 'NONE', #120, #140, #200, .T. ) ;
#110 = VECTOR ( 'NONE', #149, 1000.000000000000000 ) ;
#111 = CIRCLE ( 'NONE', #102, 1.187450000000003400 ) ;
#112 = UNCERTAINTY_MEASURE_WITH_UNIT (LENGTH_MEASURE( 1.000000000000000100E-005 ), #99, 'distance_accuracy_value', 'NONE');
#113 = PRESENTATION_LAYER_ASSIGNMENT (  '', '', ( #116 ) ) ;
#114 = ORIENTED_EDGE ( 'NONE', *, *, #104, .T. ) ;
#115 = DIRECTION ( 'NONE',  ( 0.0000000000000000000, 0.0000000000000000000, 1.000000000000000000 ) ) ;
#116 = STYLED_ITEM ( 'NONE', ( #193 ), #207 ) ;
#117 = CARTESIAN_POINT ( 'NONE',  ( 0.0000000000000000000, 2.960405216418688500E-037, 7.271275935632194200E-017 ) ) ;
#118 = CIRCLE ( 'NONE', #76, 0.9499599999999996900 ) ;
#119 = CARTESIAN_POINT ( 'NONE',  ( 0.0000000000000000000, 0.9499599999999996900, 7.270889171800883300E-017 ) ) ;
#120 = VERTEX_POINT ( 'NONE', #40 ) ;
#121 = CARTESIAN_POINT ( 'NONE',  ( 0.0000000000000000000, -9.669095782790574400E-022, -0.2374900000000013700 ) ) ;
#122 = AXIS2_PLACEMENT_3D ( 'NONE', #81, #44, #166 ) ;
#123 = PRESENTATION_STYLE_ASSIGNMENT (( #95 ) ) ;
#124 = VERTEX_POINT ( 'NONE', #9 ) ;
#125 = ADVANCED_FACE ( 'NONE', ( #162 ), #108, .F. ) ;
#126 = AXIS2_PLACEMENT_3D ( 'NONE', #187, #143, #131 ) ;
#127 = CYLINDRICAL_SURFACE ( 'NONE', #122, 1.187450000000003400 ) ;
#128 = ORIENTED_EDGE ( 'NONE', *, *, #133, .T. ) ;
#129 = EDGE_LOOP ( 'NONE', ( #17, #169, #128, #106 ) ) ;
#130 = LINE ( 'NONE', #145, #25 ) ;
#131 = DIRECTION ( 'NONE',  ( 0.0000000000000000000, 1.000000000000000000, 0.0000000000000000000 ) ) ;
#132 = MANIFOLD_SOLID_BREP ( '¸ðµû±â1', #191 ) ;
#133 = EDGE_CURVE ( 'NONE', #19, #124, #111, .T. ) ;
#134 = DIRECTION ( 'NONE',  ( -0.0000000000000000000, 4.071369650423394300E-021, 1.000000000000000000 ) ) ;
#135 = DIRECTION ( 'NONE',  ( 0.0000000000000000000, 0.7071067811865511300, -0.7071067811865440200 ) ) ;
#136 = ADVANCED_FACE ( 'NONE', ( #77 ), #139, .T. ) ;
#137 = DIRECTION ( 'NONE',  ( 0.0000000000000000000, -1.000000000000000000, 0.0000000000000000000 ) ) ;
#138 = CONICAL_SURFACE ( 'NONE', #38, 0.9499599999999996900, 0.7853981633974533900 ) ;
#139 = CONICAL_SURFACE ( 'NONE', #42, 2414.213562373084200, 1.178097245096170900 ) ;
#140 = VERTEX_POINT ( 'NONE', #189 ) ;
#141 = CARTESIAN_POINT ( 'NONE',  ( 0.0000000000000000000, 1.187450000000000100, 7.270792480843054600E-017 ) ) ;
#142 = CIRCLE ( 'NONE', #126, 1.187450000000003400 ) ;
#143 = DIRECTION ( 'NONE',  ( 0.0000000000000000000, -4.071369650423395100E-021, -1.000000000000000000 ) ) ;
#144 = FACE_OUTER_BOUND ( 'NONE', #63, .T. ) ;
#145 = CARTESIAN_POINT ( 'NONE',  ( 1.454206841647528900E-016, 1.187450000000003400, -4.834547891395273900E-021 ) ) ;
#146 = ORIENTED_EDGE ( 'NONE', *, *, #161, .T. ) ;
#147 = DIRECTION ( 'NONE',  ( 1.000000000000000000, 0.0000000000000000000, 0.0000000000000000000 ) ) ;
#148 = EDGE_LOOP ( 'NONE', ( #24, #89, #92, #114 ) ) ;
#149 = DIRECTION ( 'NONE',  ( 8.659560562354978500E-017, -0.7071067811865511300, -0.7071067811865440200 ) ) ;
#150 = EDGE_CURVE ( 'NONE', #160, #35, #86, .T. ) ;
#151 = SURFACE_SIDE_STYLE ('',( #20 ) ) ;
#152 = ORIENTED_EDGE ( 'NONE', *, *, #80, .T. ) ;
#153 = VECTOR ( 'NONE', #154, 1000.000000000000000 ) ;
#154 = DIRECTION ( 'NONE',  ( -0.0000000000000000000, 4.071369650423394300E-021, 1.000000000000000000 ) ) ;
#155 = CARTESIAN_POINT ( 'NONE',  ( 0.0000000000000000000, 3.836688339597138900E-018, 942.3581421053601200 ) ) ;
#156 = ORIENTED_EDGE ( 'NONE', *, *, #21, .F. ) ;
#157 = ADVANCED_FACE ( 'NONE', ( #194 ), #138, .T. ) ;
#158 = DIRECTION ( 'NONE',  ( -0.0000000000000000000, 4.071369650423394300E-021, 1.000000000000000000 ) ) ;
#159 = PRODUCT ( '03-0325', '03-0325', '', ( #186 ) ) ;
#160 = VERTEX_POINT ( 'NONE', #50 ) ;
#161 = EDGE_CURVE ( 'NONE', #35, #160, #118, .T. ) ;
#162 = FACE_OUTER_BOUND ( 'NONE', #72, .T. ) ;
#163 = CARTESIAN_POINT ( 'NONE',  ( 0.0000000000000000000, -2.326787755216969700E-019, -57.14999999999999900 ) ) ;
#164 = VECTOR ( 'NONE', #135, 1000.000000000000000 ) ;
#165 = EDGE_CURVE ( 'NONE', #52, #120, #74, .T. ) ;
#166 = DIRECTION ( 'NONE',  ( 0.0000000000000000000, -1.000000000000000000, 4.071369650423394300E-021 ) ) ;
#167 = DIRECTION ( 'NONE',  ( 0.0000000000000000000, -1.000000000000000000, 4.071369650423394300E-021 ) ) ;
#168 =( NAMED_UNIT ( * ) SI_UNIT ( $, .STERADIAN. ) SOLID_ANGLE_UNIT ( ) );
#169 = ORIENTED_EDGE ( 'NONE', *, *, #199, .T. ) ;
#170 = DIRECTION ( 'NONE',  ( -0.0000000000000000000, 4.071369650423394300E-021, 1.000000000000000000 ) ) ;
#171 =( LENGTH_UNIT ( ) NAMED_UNIT ( * ) SI_UNIT ( .MILLI., .METRE. ) );
#172 = SURFACE_SIDE_STYLE ('',( #39 ) ) ;
#173 = PRESENTATION_LAYER_ASSIGNMENT (  '', '', ( #23 ) ) ;
#174 = APPLICATION_CONTEXT ( 'automotive_design' ) ;
#175 = ADVANCED_FACE ( 'NONE', ( #59 ), #127, .T. ) ;
#176 = AXIS2_PLACEMENT_3D ( 'NONE', #117, #31, #93 ) ;
#177 = PRODUCT_DEFINITION_CONTEXT ( 'detailed design', #174, 'design' ) ;
#178 = ORIENTED_EDGE ( 'NONE', *, *, #150, .T. ) ;
#179 = DIRECTION ( 'NONE',  ( 0.0000000000000000000, -1.000000000000000000, 0.0000000000000000000 ) ) ;
#180 = ORIENTED_EDGE ( 'NONE', *, *, #150, .F. ) ;
#181 = MECHANICAL_DESIGN_GEOMETRIC_PRESENTATION_REPRESENTATION (  '', ( #23 ), #28 ) ;
#182 = DIRECTION ( 'NONE',  ( 0.0000000000000000000, 1.000000000000000000, -4.071369650423394300E-021 ) ) ;
#183 = CARTESIAN_POINT ( 'NONE',  ( 0.0000000000000000000, 0.0000000000000000000, 0.0000000000000000000 ) ) ;
#184 = CARTESIAN_POINT ( 'NONE',  ( 1.454206841647528900E-016, 1.187450000000003400, -0.2374900000000013700 ) ) ;
#185 =( GEOMETRIC_REPRESENTATION_CONTEXT ( 3 ) GLOBAL_UNCERTAINTY_ASSIGNED_CONTEXT ( ( #49 ) ) GLOBAL_UNIT_ASSIGNED_CONTEXT ( ( #91, #79, #214 ) ) REPRESENTATION_CONTEXT ( 'NONE', 'WORKASPACE' ) );
#186 = PRODUCT_CONTEXT ( 'NONE', #62, 'mechanical' ) ;
#187 = CARTESIAN_POINT ( 'NONE',  ( 0.0000000000000000000, -9.669095782790574400E-022, -0.2374900000000013700 ) ) ;
#188 = AXIS2_PLACEMENT_3D ( 'NONE', #141, #12, #182 ) ;
#189 = CARTESIAN_POINT ( 'NONE',  ( 1.454206841647533400E-016, 1.187450000000007200, -57.14999999999999900 ) ) ;
#190 = ORIENTED_EDGE ( 'NONE', *, *, #21, .T. ) ;
#191 = CLOSED_SHELL ( 'NONE', ( #209, #192, #136, #125, #75, #175, #157 ) ) ;
#192 = ADVANCED_FACE ( 'NONE', ( #51 ), #14, .T. ) ;
#193 = PRESENTATION_STYLE_ASSIGNMENT (( #61 ) ) ;
#194 = FACE_OUTER_BOUND ( 'NONE', #213, .T. ) ;
#195 = EDGE_LOOP ( 'NONE', ( #107, #212, #22 ) ) ;
#196 = ORIENTED_EDGE ( 'NONE', *, *, #165, .F. ) ;
#197 = CARTESIAN_POINT ( 'NONE',  ( 0.0000000000000000000, -2.346813108262552400E-019, -57.64185789463993400 ) ) ;
#198 = ORIENTED_EDGE ( 'NONE', *, *, #80, .F. ) ;
#199 = EDGE_CURVE ( 'NONE', #140, #19, #130, .T. ) ;
#200 = CIRCLE ( 'NONE', #48, 1.187450000000007000 ) ;
#201 = CARTESIAN_POINT ( 'NONE',  ( 5.758261576601241300E-051, -2.346813108262551400E-019, -57.64185789463993400 ) ) ;
#202 = ORIENTED_EDGE ( 'NONE', *, *, #161, .F. ) ;
#203 = APPLICATION_PROTOCOL_DEFINITION ( 'draft international standard', 'automotive_design', 1998, #62 ) ;
#204 = CARTESIAN_POINT ( 'NONE',  ( 0.0000000000000000000, 3.836688339597138900E-018, 942.3581421053601200 ) ) ;
#205 = DIRECTION ( 'NONE',  ( -0.0000000000000000000, 4.071369650423394300E-021, 1.000000000000000000 ) ) ;
#206 = DIRECTION ( 'NONE',  ( 0.0000000000000000000, -1.000000000000000000, 0.0000000000000000000 ) ) ;
#207 = ADVANCED_BREP_SHAPE_REPRESENTATION ( '03-0325', ( #132, #2 ), #26 ) ;
#208 = DIRECTION ( 'NONE',  ( 0.0000000000000000000, 1.000000000000000000, 0.0000000000000000000 ) ) ;
#209 = ADVANCED_FACE ( 'NONE', ( #144 ), #36, .T. ) ;
#210 = AXIS2_PLACEMENT_3D ( 'NONE', #1, #134, #66 ) ;
#211 = EDGE_CURVE ( 'NONE', #140, #120, #8, .T. ) ;
#212 = ORIENTED_EDGE ( 'NONE', *, *, #165, .T. ) ;
#213 = EDGE_LOOP ( 'NONE', ( #156, #202, #152, #101 ) ) ;
#214 =( NAMED_UNIT ( * ) SI_UNIT ( $, .STERADIAN. ) SOLID_ANGLE_UNIT ( ) );
ENDSEC;
END-ISO-10303-21;
