ISO-10303-21;
HEADER;
FILE_DESCRIPTION (( 'STEP AP214' ),
    '1' );
FILE_NAME ('03-0326.STEP',
    '2020-07-23T06:47:10',
    ( '' ),
    ( '' ),
    'SwSTEP 2.0',
    'SolidWorks 2014',
    '' );
FILE_SCHEMA (( 'AUTOMOTIVE_DESIGN' ));
ENDSEC;

DATA;
#1 = CARTESIAN_POINT ( 'NONE',  ( 0.0000000000000000000, -4.847002640084160700E-036, 6.917131241433677700E-017 ) ) ;
#2 = DIRECTION ( 'NONE',  ( -0.0000000000000000000, -7.007244001748256700E-020, 1.000000000000000000 ) ) ;
#3 = DIRECTION ( 'NONE',  ( 0.0000000000000000000, 1.000000000000000000, 0.0000000000000000000 ) ) ;
#4 = CARTESIAN_POINT ( 'NONE',  ( 0.0000000000000000000, 0.0000000000000000000, 0.0000000000000000000 ) ) ;
#5 = ORIENTED_EDGE ( 'NONE', *, *, #37, .T. ) ;
#6 = ORIENTED_EDGE ( 'NONE', *, *, #9, .F. ) ;
#7 = AXIS2_PLACEMENT_3D ( 'NONE', #124, #126, #181 ) ;
#8 = SURFACE_STYLE_USAGE ( .BOTH. , #163 ) ;
#9 = EDGE_CURVE ( 'NONE', #117, #160, #27, .T. ) ;
#10 = DIRECTION ( 'NONE',  ( 0.0000000000000000000, 7.007244001748257900E-020, -1.000000000000000000 ) ) ;
#11 = CIRCLE ( 'NONE', #20, 1.130300000000003400 ) ;
#12 = ORIENTED_EDGE ( 'NONE', *, *, #74, .F. ) ;
#13 = UNCERTAINTY_MEASURE_WITH_UNIT (LENGTH_MEASURE( 1.000000000000000100E-005 ), #128, 'distance_accuracy_value', 'NONE');
#14 = CONICAL_SURFACE ( 'NONE', #19, 2414.213562373084200, 1.178097245096170900 ) ;
#15 = ADVANCED_FACE ( 'NONE', ( #165 ), #69, .T. ) ;
#16 = EDGE_LOOP ( 'NONE', ( #106, #5, #6, #122 ) ) ;
#17 = EDGE_LOOP ( 'NONE', ( #187, #198 ) ) ;
#18 = APPLICATION_PROTOCOL_DEFINITION ( 'draft international standard', 'automotive_design', 1998, #104 ) ;
#19 = AXIS2_PLACEMENT_3D ( 'NONE', #33, #161, #191 ) ;
#20 = AXIS2_PLACEMENT_3D ( 'NONE', #68, #89, #3 ) ;
#21 = DIRECTION ( 'NONE',  ( 0.0000000000000000000, -1.000000000000000000, -7.007244001748256700E-020 ) ) ;
#22 = ORIENTED_EDGE ( 'NONE', *, *, #43, .F. ) ;
#23 = EDGE_CURVE ( 'NONE', #168, #117, #90, .T. ) ;
#24 = CARTESIAN_POINT ( 'NONE',  ( 1.107374621661011900E-016, -0.9042400000000074800, 6.910795011117536500E-017 ) ) ;
#25 = FILL_AREA_STYLE ('',( #26 ) ) ;
#26 = FILL_AREA_STYLE_COLOUR ( '', #40 ) ;
#27 = CIRCLE ( 'NONE', #178, 1.130300000000003400 ) ;
#28 = AXIS2_PLACEMENT_3D ( 'NONE', #176, #82, #100 ) ;
#29 = ADVANCED_FACE ( 'NONE', ( #179 ), #85, .T. ) ;
#30 = CONICAL_SURFACE ( 'NONE', #188, 0.9042400000000074800, 0.7853981633974536100 ) ;
#31 = DIRECTION ( 'NONE',  ( 0.0000000000000000000, 1.000000000000000000, 0.0000000000000000000 ) ) ;
#32 = AXIS2_PLACEMENT_3D ( 'NONE', #57, #211, #131 ) ;
#33 = CARTESIAN_POINT ( 'NONE',  ( 0.0000000000000000000, -6.603499316384262200E-017, 942.3818144104496900 ) ) ;
#34 = CARTESIAN_POINT ( 'NONE',  ( 1.384218277076257300E-016, 1.130300000000003400, 7.920287895176078600E-020 ) ) ;
#35 = PRESENTATION_STYLE_ASSIGNMENT (( #177 ) ) ;
#36 = ORIENTED_EDGE ( 'NONE', *, *, #114, .F. ) ;
#37 = EDGE_CURVE ( 'NONE', #91, #160, #149, .T. ) ;
#38 = VECTOR ( 'NONE', #144, 999.9999999999998900 ) ;
#39 = STYLED_ITEM ( 'NONE', ( #197 ), #49 ) ;
#40 = COLOUR_RGB ( '',0.7921568627450980000, 0.8196078431372548800, 0.9333333333333333500 ) ;
#41 = CARTESIAN_POINT ( 'NONE',  ( 0.0000000000000000000, 4.004639946999129000E-018, -57.14999999999999900 ) ) ;
#42 = VECTOR ( 'NONE', #115, 1000.000000000000000 ) ;
#43 = EDGE_CURVE ( 'NONE', #168, #45, #141, .T. ) ;
#44 = ADVANCED_FACE ( 'NONE', ( #78 ), #30, .T. ) ;
#45 = VERTEX_POINT ( 'NONE', #180 ) ;
#46 = VECTOR ( 'NONE', #193, 1000.000000000000000 ) ;
#47 = SHAPE_DEFINITION_REPRESENTATION ( #212, #112 ) ;
#48 = DIRECTION ( 'NONE',  ( 0.0000000000000000000, 1.000000000000000000, 7.007244001747934100E-020 ) ) ;
#49 = MANIFOLD_SOLID_BREP ( '¸ðµû±â1', #175 ) ;
#50 =( NAMED_UNIT ( * ) SI_UNIT ( $, .STERADIAN. ) SOLID_ANGLE_UNIT ( ) );
#51 = MECHANICAL_DESIGN_GEOMETRIC_PRESENTATION_REPRESENTATION (  '', ( #111 ), #103 ) ;
#52 = PLANE ( 'NONE',  #93 ) ;
#53 = CIRCLE ( 'NONE', #65, 0.9042400000000074800 ) ;
#54 = ORIENTED_EDGE ( 'NONE', *, *, #172, .F. ) ;
#55 = PRESENTATION_LAYER_ASSIGNMENT (  '', '', ( #39 ) ) ;
#56 = DIRECTION ( 'NONE',  ( 0.0000000000000000000, -1.000000000000000000, 0.0000000000000000000 ) ) ;
#57 = CARTESIAN_POINT ( 'NONE',  ( 0.0000000000000000000, -4.847002640084160700E-036, 6.917131241433677700E-017 ) ) ;
#58 = ORIENTED_EDGE ( 'NONE', *, *, #133, .T. ) ;
#59 = PRODUCT ( '03-0326', '03-0326', '', ( #84 ) ) ;
#60 = ORIENTED_EDGE ( 'NONE', *, *, #88, .T. ) ;
#61 = LINE ( 'NONE', #119, #38 ) ;
#62 = EDGE_CURVE ( 'NONE', #79, #91, #159, .T. ) ;
#63 =( NAMED_UNIT ( * ) SI_UNIT ( $, .STERADIAN. ) SOLID_ANGLE_UNIT ( ) );
#64 = FILL_AREA_STYLE_COLOUR ( '', #137 ) ;
#65 = AXIS2_PLACEMENT_3D ( 'NONE', #1, #2, #48 ) ;
#66 = DIRECTION ( 'NONE',  ( 0.0000000000000000000, 7.007244001748256700E-020, -1.000000000000000000 ) ) ;
#67 = VECTOR ( 'NONE', #107, 1000.000000000000000 ) ;
#68 = CARTESIAN_POINT ( 'NONE',  ( 0.0000000000000000000, 1.584057579035164400E-020, -0.2260599999999933500 ) ) ;
#69 = CONICAL_SURFACE ( 'NONE', #28, 2414.213562373084200, 1.178097245096170900 ) ;
#70 = EDGE_LOOP ( 'NONE', ( #116, #60, #36 ) ) ;
#71 = DIRECTION ( 'NONE',  ( 0.0000000000000000000, 1.000000000000000000, 7.007244001747934100E-020 ) ) ;
#72 = VECTOR ( 'NONE', #129, 999.9999999999998900 ) ;
#73 = VERTEX_POINT ( 'NONE', #110 ) ;
#74 = EDGE_CURVE ( 'NONE', #45, #160, #185, .T. ) ;
#75 = CARTESIAN_POINT ( 'NONE',  ( 0.0000000000000000000, 4.004639946999129000E-018, -57.14999999999999900 ) ) ;
#76 = CARTESIAN_POINT ( 'NONE',  ( 0.0000000000000000000, -4.847002640084160700E-036, 6.917131241433677700E-017 ) ) ;
#77 = CARTESIAN_POINT ( 'NONE',  ( 0.0000000000000000000, 0.0000000000000000000, 0.0000000000000000000 ) ) ;
#78 = FACE_OUTER_BOUND ( 'NONE', #166, .T. ) ;
#79 = VERTEX_POINT ( 'NONE', #130 ) ;
#80 = ADVANCED_FACE ( 'NONE', ( #97 ), #134, .T. ) ;
#81 = SURFACE_STYLE_FILL_AREA ( #25 ) ;
#82 = DIRECTION ( 'NONE',  ( -0.0000000000000000000, -7.007244001748256700E-020, 1.000000000000000000 ) ) ;
#83 =( LENGTH_UNIT ( ) NAMED_UNIT ( * ) SI_UNIT ( .MILLI., .METRE. ) );
#84 = PRODUCT_CONTEXT ( 'NONE', #104, 'mechanical' ) ;
#85 = CYLINDRICAL_SURFACE ( 'NONE', #7, 1.130300000000003400 ) ;
#86 = AXIS2_PLACEMENT_3D ( 'NONE', #75, #108, #56 ) ;
#87 = APPLICATION_CONTEXT ( 'automotive_design' ) ;
#88 = EDGE_CURVE ( 'NONE', #73, #168, #153, .T. ) ;
#89 = DIRECTION ( 'NONE',  ( 0.0000000000000000000, 7.007244001748257900E-020, -1.000000000000000000 ) ) ;
#90 = LINE ( 'NONE', #34, #46 ) ;
#91 = VERTEX_POINT ( 'NONE', #167 ) ;
#92 = VECTOR ( 'NONE', #94, 1000.000000000000000 ) ;
#93 = AXIS2_PLACEMENT_3D ( 'NONE', #154, #66, #205 ) ;
#94 = DIRECTION ( 'NONE',  ( -0.0000000000000000000, -7.007244001748256700E-020, 1.000000000000000000 ) ) ;
#95 = PRESENTATION_LAYER_ASSIGNMENT (  '', '', ( #111 ) ) ;
#96 = AXIS2_PLACEMENT_3D ( 'NONE', #77, #202, #21 ) ;
#97 = FACE_OUTER_BOUND ( 'NONE', #16, .T. ) ;
#98 = EDGE_LOOP ( 'NONE', ( #127, #207, #22 ) ) ;
#99 = ADVANCED_FACE ( 'NONE', ( #105 ), #209, .T. ) ;
#100 = DIRECTION ( 'NONE',  ( 0.0000000000000000000, -1.000000000000000000, 0.0000000000000000000 ) ) ;
#101 = ORIENTED_EDGE ( 'NONE', *, *, #74, .T. ) ;
#102 =( NAMED_UNIT ( * ) PLANE_ANGLE_UNIT ( ) SI_UNIT ( $, .RADIAN. ) );
#103 =( GEOMETRIC_REPRESENTATION_CONTEXT ( 3 ) GLOBAL_UNCERTAINTY_ASSIGNED_CONTEXT ( ( #200 ) ) GLOBAL_UNIT_ASSIGNED_CONTEXT ( ( #190, #189, #63 ) ) REPRESENTATION_CONTEXT ( 'NONE', 'WORKASPACE' ) );
#104 = APPLICATION_CONTEXT ( 'automotive_design' ) ;
#105 = FACE_OUTER_BOUND ( 'NONE', #194, .T. ) ;
#106 = ORIENTED_EDGE ( 'NONE', *, *, #146, .F. ) ;
#107 = DIRECTION ( 'NONE',  ( 0.0000000000000000000, -0.9238795325112861800, 0.3826834323650912300 ) ) ;
#108 = DIRECTION ( 'NONE',  ( -0.0000000000000000000, -7.007244001748256700E-020, 1.000000000000000000 ) ) ;
#109 =( GEOMETRIC_REPRESENTATION_CONTEXT ( 3 ) GLOBAL_UNCERTAINTY_ASSIGNED_CONTEXT ( ( #13 ) ) GLOBAL_UNIT_ASSIGNED_CONTEXT ( ( #128, #147, #164 ) ) REPRESENTATION_CONTEXT ( 'NONE', 'WORKASPACE' ) );
#110 = CARTESIAN_POINT ( 'NONE',  ( 0.0000000000000000000, 4.037446853639943000E-018, -57.61818558955031500 ) ) ;
#111 = STYLED_ITEM ( 'NONE', ( #35 ), #112 ) ;
#112 = ADVANCED_BREP_SHAPE_REPRESENTATION ( '03-0326', ( #49, #136 ), #182 ) ;
#113 = CARTESIAN_POINT ( 'NONE',  ( 0.0000000000000000000, -4.847002640084160700E-036, 6.917131241433677700E-017 ) ) ;
#114 = EDGE_CURVE ( 'NONE', #45, #168, #171, .T. ) ;
#115 = DIRECTION ( 'NONE',  ( 1.131426112287699800E-016, 0.9238795325112861800, 0.3826834323650912300 ) ) ;
#116 = ORIENTED_EDGE ( 'NONE', *, *, #142, .F. ) ;
#117 = VERTEX_POINT ( 'NONE', #186 ) ;
#118 = DIRECTION ( 'NONE',  ( 0.0000000000000000000, 7.007244001748257900E-020, -1.000000000000000000 ) ) ;
#119 = CARTESIAN_POINT ( 'NONE',  ( 0.0000000000000000000, 0.9042400000000074800, 6.923467471749817600E-017 ) ) ;
#120 = FILL_AREA_STYLE ('',( #64 ) ) ;
#121 = PRODUCT_DEFINITION ( 'UNKNOWN', '', #135, #184 ) ;
#122 = ORIENTED_EDGE ( 'NONE', *, *, #133, .F. ) ;
#123 = CARTESIAN_POINT ( 'NONE',  ( 0.0000000000000000000, 4.037446853639943000E-018, -57.61818558955031500 ) ) ;
#124 = CARTESIAN_POINT ( 'NONE',  ( 0.0000000000000000000, 0.0000000000000000000, 0.0000000000000000000 ) ) ;
#125 = CARTESIAN_POINT ( 'NONE',  ( 0.0000000000000000000, -1.130300000000003400, -0.2260599999999933500 ) ) ;
#126 = DIRECTION ( 'NONE',  ( -0.0000000000000000000, -7.007244001748256700E-020, 1.000000000000000000 ) ) ;
#127 = ORIENTED_EDGE ( 'NONE', *, *, #88, .F. ) ;
#128 =( LENGTH_UNIT ( ) NAMED_UNIT ( * ) SI_UNIT ( .MILLI., .METRE. ) );
#129 = DIRECTION ( 'NONE',  ( 8.659560562354979700E-017, -0.7071067811865512400, -0.7071067811865439100 ) ) ;
#130 = CARTESIAN_POINT ( 'NONE',  ( 0.0000000000000000000, 0.9042400000000074800, 6.923467471749817600E-017 ) ) ;
#131 = DIRECTION ( 'NONE',  ( 0.0000000000000000000, 1.000000000000000000, 7.007244001747934100E-020 ) ) ;
#132 = SURFACE_STYLE_FILL_AREA ( #120 ) ;
#133 = EDGE_CURVE ( 'NONE', #79, #117, #61, .T. ) ;
#134 = CONICAL_SURFACE ( 'NONE', #32, 0.9042400000000074800, 0.7853981633974536100 ) ;
#135 = PRODUCT_DEFINITION_FORMATION_WITH_SPECIFIED_SOURCE ( 'ANY', '', #59, .NOT_KNOWN. ) ;
#136 = AXIS2_PLACEMENT_3D ( 'NONE', #4, #208, #143 ) ;
#137 = COLOUR_RGB ( '',0.7921568627450980000, 0.8196078431372548800, 0.9333333333333333500 ) ;
#138 = ORIENTED_EDGE ( 'NONE', *, *, #43, .T. ) ;
#139 = DIRECTION ( 'NONE',  ( 0.0000000000000000000, -1.000000000000000000, 0.0000000000000000000 ) ) ;
#140 = SURFACE_SIDE_STYLE ('',( #132 ) ) ;
#141 = CIRCLE ( 'NONE', #86, 1.130300000000006700 ) ;
#142 = EDGE_CURVE ( 'NONE', #73, #45, #206, .T. ) ;
#143 = DIRECTION ( 'NONE',  ( 1.000000000000000000, 0.0000000000000000000, 0.0000000000000000000 ) ) ;
#144 = DIRECTION ( 'NONE',  ( 0.0000000000000000000, 0.7071067811865512400, -0.7071067811865439100 ) ) ;
#145 = ORIENTED_EDGE ( 'NONE', *, *, #172, .T. ) ;
#146 = EDGE_CURVE ( 'NONE', #91, #79, #53, .T. ) ;
#147 =( NAMED_UNIT ( * ) PLANE_ANGLE_UNIT ( ) SI_UNIT ( $, .RADIAN. ) );
#148 = DIRECTION ( 'NONE',  ( 0.0000000000000000000, 1.000000000000000000, 7.007244001747934100E-020 ) ) ;
#149 = LINE ( 'NONE', #24, #72 ) ;
#150 = PRODUCT_RELATED_PRODUCT_CATEGORY ( 'part', '', ( #59 ) ) ;
#151 = ORIENTED_EDGE ( 'NONE', *, *, #62, .F. ) ;
#152 = ORIENTED_EDGE ( 'NONE', *, *, #23, .T. ) ;
#153 = LINE ( 'NONE', #170, #42 ) ;
#154 = CARTESIAN_POINT ( 'NONE',  ( 0.0000000000000000000, 1.130299999999999900, 6.925051529328852200E-017 ) ) ;
#155 = MECHANICAL_DESIGN_GEOMETRIC_PRESENTATION_REPRESENTATION (  '', ( #39 ), #109 ) ;
#156 = UNCERTAINTY_MEASURE_WITH_UNIT (LENGTH_MEASURE( 1.000000000000000100E-005 ), #83, 'distance_accuracy_value', 'NONE');
#157 = AXIS2_PLACEMENT_3D ( 'NONE', #113, #196, #148 ) ;
#158 = APPLICATION_PROTOCOL_DEFINITION ( 'draft international standard', 'automotive_design', 1998, #87 ) ;
#159 = CIRCLE ( 'NONE', #157, 0.9042400000000074800 ) ;
#160 = VERTEX_POINT ( 'NONE', #125 ) ;
#161 = DIRECTION ( 'NONE',  ( -0.0000000000000000000, -7.007244001748256700E-020, 1.000000000000000000 ) ) ;
#162 = ORIENTED_EDGE ( 'NONE', *, *, #114, .T. ) ;
#163 = SURFACE_SIDE_STYLE ('',( #81 ) ) ;
#164 =( NAMED_UNIT ( * ) SI_UNIT ( $, .STERADIAN. ) SOLID_ANGLE_UNIT ( ) );
#165 = FACE_OUTER_BOUND ( 'NONE', #98, .T. ) ;
#166 = EDGE_LOOP ( 'NONE', ( #210, #151, #58, #54 ) ) ;
#167 = CARTESIAN_POINT ( 'NONE',  ( 1.245796449368634500E-016, -0.9042400000000074800, 6.910795011117536500E-017 ) ) ;
#168 = VERTEX_POINT ( 'NONE', #204 ) ;
#169 = DIRECTION ( 'NONE',  ( -0.0000000000000000000, -7.007244001748256700E-020, 1.000000000000000000 ) ) ;
#170 = CARTESIAN_POINT ( 'NONE',  ( 0.0000000000000000000, 4.037446853639943000E-018, -57.61818558955031500 ) ) ;
#171 = CIRCLE ( 'NONE', #195, 1.130300000000006700 ) ;
#172 = EDGE_CURVE ( 'NONE', #160, #117, #11, .T. ) ;
#173 = ADVANCED_FACE ( 'NONE', ( #213 ), #52, .F. ) ;
#174 = ADVANCED_FACE ( 'NONE', ( #203 ), #14, .T. ) ;
#175 = CLOSED_SHELL ( 'NONE', ( #80, #29, #174, #173, #15, #99, #44 ) ) ;
#176 = CARTESIAN_POINT ( 'NONE',  ( 0.0000000000000000000, -6.603499316384262200E-017, 942.3818144104496900 ) ) ;
#177 = SURFACE_STYLE_USAGE ( .BOTH. , #140 ) ;
#178 = AXIS2_PLACEMENT_3D ( 'NONE', #214, #118, #31 ) ;
#179 = FACE_OUTER_BOUND ( 'NONE', #183, .T. ) ;
#180 = CARTESIAN_POINT ( 'NONE',  ( 0.0000000000000000000, -1.130300000000007000, -57.14999999999999900 ) ) ;
#181 = DIRECTION ( 'NONE',  ( 0.0000000000000000000, -1.000000000000000000, -7.007244001748256700E-020 ) ) ;
#182 =( GEOMETRIC_REPRESENTATION_CONTEXT ( 3 ) GLOBAL_UNCERTAINTY_ASSIGNED_CONTEXT ( ( #156 ) ) GLOBAL_UNIT_ASSIGNED_CONTEXT ( ( #83, #102, #50 ) ) REPRESENTATION_CONTEXT ( 'NONE', 'WORKASPACE' ) );
#183 = EDGE_LOOP ( 'NONE', ( #162, #152, #201, #12 ) ) ;
#184 = PRODUCT_DEFINITION_CONTEXT ( 'detailed design', #87, 'design' ) ;
#185 = LINE ( 'NONE', #199, #92 ) ;
#186 = CARTESIAN_POINT ( 'NONE',  ( 1.384218277076257300E-016, 1.130300000000003400, -0.2260599999999933500 ) ) ;
#187 = ORIENTED_EDGE ( 'NONE', *, *, #62, .T. ) ;
#188 = AXIS2_PLACEMENT_3D ( 'NONE', #76, #10, #71 ) ;
#189 =( NAMED_UNIT ( * ) PLANE_ANGLE_UNIT ( ) SI_UNIT ( $, .RADIAN. ) );
#190 =( LENGTH_UNIT ( ) NAMED_UNIT ( * ) SI_UNIT ( .MILLI., .METRE. ) );
#191 = DIRECTION ( 'NONE',  ( 0.0000000000000000000, -1.000000000000000000, 0.0000000000000000000 ) ) ;
#192 = ORIENTED_EDGE ( 'NONE', *, *, #23, .F. ) ;
#193 = DIRECTION ( 'NONE',  ( -0.0000000000000000000, -7.007244001748256700E-020, 1.000000000000000000 ) ) ;
#194 = EDGE_LOOP ( 'NONE', ( #192, #138, #101, #145 ) ) ;
#195 = AXIS2_PLACEMENT_3D ( 'NONE', #41, #169, #139 ) ;
#196 = DIRECTION ( 'NONE',  ( -0.0000000000000000000, -7.007244001748256700E-020, 1.000000000000000000 ) ) ;
#197 = PRESENTATION_STYLE_ASSIGNMENT (( #8 ) ) ;
#198 = ORIENTED_EDGE ( 'NONE', *, *, #146, .T. ) ;
#199 = CARTESIAN_POINT ( 'NONE',  ( 0.0000000000000000000, -1.130300000000003400, -7.920287895176078600E-020 ) ) ;
#200 = UNCERTAINTY_MEASURE_WITH_UNIT (LENGTH_MEASURE( 1.000000000000000100E-005 ), #190, 'distance_accuracy_value', 'NONE');
#201 = ORIENTED_EDGE ( 'NONE', *, *, #9, .T. ) ;
#202 = DIRECTION ( 'NONE',  ( -0.0000000000000000000, -7.007244001748256700E-020, 1.000000000000000000 ) ) ;
#203 = FACE_OUTER_BOUND ( 'NONE', #70, .T. ) ;
#204 = CARTESIAN_POINT ( 'NONE',  ( 1.384218277076262000E-016, 1.130300000000007000, -57.14999999999999900 ) ) ;
#205 = DIRECTION ( 'NONE',  ( 0.0000000000000000000, 1.000000000000000000, 7.007244001748256700E-020 ) ) ;
#206 = LINE ( 'NONE', #123, #67 ) ;
#207 = ORIENTED_EDGE ( 'NONE', *, *, #142, .T. ) ;
#208 = DIRECTION ( 'NONE',  ( 0.0000000000000000000, 0.0000000000000000000, 1.000000000000000000 ) ) ;
#209 = CYLINDRICAL_SURFACE ( 'NONE', #96, 1.130300000000003400 ) ;
#210 = ORIENTED_EDGE ( 'NONE', *, *, #37, .F. ) ;
#211 = DIRECTION ( 'NONE',  ( 0.0000000000000000000, 7.007244001748257900E-020, -1.000000000000000000 ) ) ;
#212 = PRODUCT_DEFINITION_SHAPE ( 'NONE', 'NONE',  #121 ) ;
#213 = FACE_OUTER_BOUND ( 'NONE', #17, .T. ) ;
#214 = CARTESIAN_POINT ( 'NONE',  ( 0.0000000000000000000, 1.584057579035164400E-020, -0.2260599999999933500 ) ) ;
ENDSEC;
END-ISO-10303-21;
