ISO-10303-21;
HEADER;
FILE_DESCRIPTION (( 'STEP AP214' ),
    '1' );
FILE_NAME ('03-0327.STEP',
    '2020-07-23T06:47:51',
    ( '' ),
    ( '' ),
    'SwSTEP 2.0',
    'SolidWorks 2014',
    '' );
FILE_SCHEMA (( 'AUTOMOTIVE_DESIGN' ));
ENDSEC;

DATA;
#1 = DIRECTION ( 'NONE',  ( 8.659560562354837900E-017, -0.7071067811865398000, -0.7071067811865552300 ) ) ;
#2 = AXIS2_PLACEMENT_3D ( 'NONE', #44, #19, #49 ) ;
#3 = DIRECTION ( 'NONE',  ( 0.0000000000000000000, 1.000000000000000000, 0.0000000000000000000 ) ) ;
#4 = DIRECTION ( 'NONE',  ( -0.0000000000000000000, -3.411302752418041800E-020, 1.000000000000000000 ) ) ;
#5 = ORIENTED_EDGE ( 'NONE', *, *, #182, .T. ) ;
#6 = EDGE_CURVE ( 'NONE', #186, #133, #119, .T. ) ;
#7 = PRODUCT_DEFINITION_FORMATION_WITH_SPECIFIED_SOURCE ( 'ANY', '', #179, .NOT_KNOWN. ) ;
#8 = EDGE_LOOP ( 'NONE', ( #178, #22 ) ) ;
#9 = CARTESIAN_POINT ( 'NONE',  ( 0.0000000000000000000, 0.0000000000000000000, 0.0000000000000000000 ) ) ;
#10 = COLOUR_RGB ( '',0.7921568627450980000, 0.8196078431372548800, 0.9333333333333333500 ) ;
#11 = FACE_OUTER_BOUND ( 'NONE', #200, .T. ) ;
#12 = CARTESIAN_POINT ( 'NONE',  ( 0.0000000000000000000, 1.856683532523670300E-018, -54.42740405282389600 ) ) ;
#13 = CARTESIAN_POINT ( 'NONE',  ( 0.0000000000000000000, 1.856683532523670300E-018, -54.42740405282389600 ) ) ;
#14 = CARTESIAN_POINT ( 'NONE',  ( 0.0000000000000000000, 1.092199999999999800, 6.689659082576790800E-017 ) ) ;
#15 = ORIENTED_EDGE ( 'NONE', *, *, #26, .T. ) ;
#16 = DIRECTION ( 'NONE',  ( 0.0000000000000000000, 1.000000000000000000, 3.411302752417592200E-020 ) ) ;
#17 = FACE_OUTER_BOUND ( 'NONE', #8, .T. ) ;
#18 = ORIENTED_EDGE ( 'NONE', *, *, #6, .F. ) ;
#19 = DIRECTION ( 'NONE',  ( 0.0000000000000000000, 3.411302752418042400E-020, -1.000000000000000000 ) ) ;
#20 = UNCERTAINTY_MEASURE_WITH_UNIT (LENGTH_MEASURE( 1.000000000000000100E-005 ), #124, 'distance_accuracy_value', 'NONE');
#21 = PRESENTATION_STYLE_ASSIGNMENT (( #92 ) ) ;
#22 = ORIENTED_EDGE ( 'NONE', *, *, #67, .T. ) ;
#23 = DIRECTION ( 'NONE',  ( 0.0000000000000000000, 0.0000000000000000000, 1.000000000000000000 ) ) ;
#24 = LINE ( 'NONE', #157, #76 ) ;
#25 =( NAMED_UNIT ( * ) SI_UNIT ( $, .STERADIAN. ) SOLID_ANGLE_UNIT ( ) );
#26 = EDGE_CURVE ( 'NONE', #61, #186, #148, .T. ) ;
#27 = DIRECTION ( 'NONE',  ( -0.0000000000000000000, -3.411302752418041800E-020, 1.000000000000000000 ) ) ;
#28 = VERTEX_POINT ( 'NONE', #131 ) ;
#29 = PRESENTATION_LAYER_ASSIGNMENT (  '', '', ( #190 ) ) ;
#30 = CIRCLE ( 'NONE', #99, 1.092200000000002900 ) ;
#31 = AXIS2_PLACEMENT_3D ( 'NONE', #59, #93, #173 ) ;
#32 = DIRECTION ( 'NONE',  ( -0.0000000000000000000, -3.411302752418041800E-020, 1.000000000000000000 ) ) ;
#33 = ORIENTED_EDGE ( 'NONE', *, *, #6, .T. ) ;
#34 = LINE ( 'NONE', #12, #204 ) ;
#35 = ADVANCED_FACE ( 'NONE', ( #152 ), #82, .T. ) ;
#36 = ORIENTED_EDGE ( 'NONE', *, *, #105, .T. ) ;
#37 = CIRCLE ( 'NONE', #143, 1.092200000000006300 ) ;
#38 = APPLICATION_PROTOCOL_DEFINITION ( 'draft international standard', 'automotive_design', 1998, #208 ) ;
#39 = SURFACE_STYLE_USAGE ( .BOTH. , #112 ) ;
#40 =( LENGTH_UNIT ( ) NAMED_UNIT ( * ) SI_UNIT ( .MILLI., .METRE. ) );
#41 = DIRECTION ( 'NONE',  ( 0.0000000000000000000, -1.000000000000000000, -3.411302752418041800E-020 ) ) ;
#42 = CARTESIAN_POINT ( 'NONE',  ( 0.0000000000000000000, 0.0000000000000000000, 0.0000000000000000000 ) ) ;
#43 = CARTESIAN_POINT ( 'NONE',  ( 1.070047387222992800E-016, -0.8737600000000012000, 6.682952597817647100E-017 ) ) ;
#44 = CARTESIAN_POINT ( 'NONE',  ( 0.0000000000000000000, -2.280774252451149400E-036, 6.685933257710600100E-017 ) ) ;
#45 = AXIS2_PLACEMENT_3D ( 'NONE', #14, #114, #72 ) ;
#46 = FACE_OUTER_BOUND ( 'NONE', #79, .T. ) ;
#47 = PRODUCT_DEFINITION_SHAPE ( 'NONE', 'NONE',  #189 ) ;
#48 = CONICAL_SURFACE ( 'NONE', #2, 0.8737600000000012000, 0.7853981633974374000 ) ;
#49 = DIRECTION ( 'NONE',  ( 0.0000000000000000000, 1.000000000000000000, 3.411302752417592200E-020 ) ) ;
#50 = CARTESIAN_POINT ( 'NONE',  ( 0.0000000000000000000, -2.280774252451149400E-036, 6.685933257710600100E-017 ) ) ;
#51 = ORIENTED_EDGE ( 'NONE', *, *, #166, .F. ) ;
#52 = MECHANICAL_DESIGN_GEOMETRIC_PRESENTATION_REPRESENTATION (  '', ( #190 ), #193 ) ;
#53 = ADVANCED_FACE ( 'NONE', ( #46 ), #115, .T. ) ;
#54 = ADVANCED_BREP_SHAPE_REPRESENTATION ( '03-0327', ( #211, #80 ), #176 ) ;
#55 = ORIENTED_EDGE ( 'NONE', *, *, #26, .F. ) ;
#56 = EDGE_CURVE ( 'NONE', #28, #186, #71, .T. ) ;
#57 = PLANE ( 'NONE',  #45 ) ;
#58 = DIRECTION ( 'NONE',  ( 0.0000000000000000000, 0.7071067811865398000, -0.7071067811865552300 ) ) ;
#59 = CARTESIAN_POINT ( 'NONE',  ( 0.0000000000000000000, -3.225634399165674500E-017, 945.5725959471761800 ) ) ;
#60 = CARTESIAN_POINT ( 'NONE',  ( 0.0000000000000000000, 1.856683532523670300E-018, -54.42740405282389600 ) ) ;
#61 = VERTEX_POINT ( 'NONE', #64 ) ;
#62 = CARTESIAN_POINT ( 'NONE',  ( 0.0000000000000000000, -2.280774252451149400E-036, 6.685933257710600100E-017 ) ) ;
#63 = PRESENTATION_STYLE_ASSIGNMENT (( #39 ) ) ;
#64 = CARTESIAN_POINT ( 'NONE',  ( 0.0000000000000000000, -1.092200000000005800, -53.97499999999999400 ) ) ;
#65 = ORIENTED_EDGE ( 'NONE', *, *, #166, .T. ) ;
#66 = ORIENTED_EDGE ( 'NONE', *, *, #67, .F. ) ;
#67 = EDGE_CURVE ( 'NONE', #28, #69, #158, .T. ) ;
#68 = VECTOR ( 'NONE', #116, 1000.000000000000000 ) ;
#69 = VERTEX_POINT ( 'NONE', #177 ) ;
#70 = CIRCLE ( 'NONE', #132, 1.092200000000006300 ) ;
#71 = LINE ( 'NONE', #43, #108 ) ;
#72 = DIRECTION ( 'NONE',  ( 0.0000000000000000000, 1.000000000000000000, 3.411302752418041800E-020 ) ) ;
#73 = DIRECTION ( 'NONE',  ( 0.0000000000000000000, -1.000000000000000000, 0.0000000000000000000 ) ) ;
#74 = DIRECTION ( 'NONE',  ( 0.0000000000000000000, 3.411302752418042400E-020, -1.000000000000000000 ) ) ;
#75 = ORIENTED_EDGE ( 'NONE', *, *, #182, .F. ) ;
#76 = VECTOR ( 'NONE', #129, 1000.000000000000000 ) ;
#77 = CARTESIAN_POINT ( 'NONE',  ( 0.0000000000000000000, -1.092200000000002900, -3.725824866190995400E-020 ) ) ;
#78 = CARTESIAN_POINT ( 'NONE',  ( 0.0000000000000000000, -3.225634399165674500E-017, 945.5725959471761800 ) ) ;
#79 = EDGE_LOOP ( 'NONE', ( #196, #203, #15, #33 ) ) ;
#80 = AXIS2_PLACEMENT_3D ( 'NONE', #9, #23, #137 ) ;
#81 = SHAPE_DEFINITION_REPRESENTATION ( #47, #54 ) ;
#82 = CONICAL_SURFACE ( 'NONE', #206, 0.8737600000000012000, 0.7853981633974374000 ) ;
#83 = CLOSED_SHELL ( 'NONE', ( #103, #165, #122, #151, #84, #53, #35 ) ) ;
#84 = ADVANCED_FACE ( 'NONE', ( #161 ), #213, .T. ) ;
#85 = APPLICATION_CONTEXT ( 'automotive_design' ) ;
#86 = PRODUCT_CONTEXT ( 'NONE', #85, 'mechanical' ) ;
#87 = EDGE_CURVE ( 'NONE', #69, #28, #187, .T. ) ;
#88 =( NAMED_UNIT ( * ) SI_UNIT ( $, .STERADIAN. ) SOLID_ANGLE_UNIT ( ) );
#89 = LINE ( 'NONE', #170, #181 ) ;
#90 = AXIS2_PLACEMENT_3D ( 'NONE', #62, #118, #16 ) ;
#91 = FILL_AREA_STYLE_COLOUR ( '', #163 ) ;
#92 = SURFACE_STYLE_USAGE ( .BOTH. , #127 ) ;
#93 = DIRECTION ( 'NONE',  ( -0.0000000000000000000, -3.411302752418041800E-020, 1.000000000000000000 ) ) ;
#94 = CARTESIAN_POINT ( 'NONE',  ( 0.0000000000000000000, 7.451649732382192200E-021, -0.2184400000000065200 ) ) ;
#95 = CARTESIAN_POINT ( 'NONE',  ( 0.0000000000000000000, 7.451649732382192200E-021, -0.2184400000000065200 ) ) ;
#96 = UNCERTAINTY_MEASURE_WITH_UNIT (LENGTH_MEASURE( 1.000000000000000100E-005 ), #175, 'distance_accuracy_value', 'NONE');
#97 = ORIENTED_EDGE ( 'NONE', *, *, #197, .F. ) ;
#98 = DIRECTION ( 'NONE',  ( -0.0000000000000000000, -3.411302752418041800E-020, 1.000000000000000000 ) ) ;
#99 = AXIS2_PLACEMENT_3D ( 'NONE', #95, #74, #140 ) ;
#100 = DIRECTION ( 'NONE',  ( 0.0000000000000000000, 1.000000000000000000, 3.411302752417592200E-020 ) ) ;
#101 = ORIENTED_EDGE ( 'NONE', *, *, #56, .F. ) ;
#102 = ORIENTED_EDGE ( 'NONE', *, *, #123, .F. ) ;
#103 = ADVANCED_FACE ( 'NONE', ( #11 ), #48, .T. ) ;
#104 = SURFACE_STYLE_FILL_AREA ( #194 ) ;
#105 = EDGE_CURVE ( 'NONE', #168, #133, #24, .T. ) ;
#106 = AXIS2_PLACEMENT_3D ( 'NONE', #191, #98, #214 ) ;
#107 = ORIENTED_EDGE ( 'NONE', *, *, #125, .F. ) ;
#108 = VECTOR ( 'NONE', #1, 1000.000000000000000 ) ;
#109 = ORIENTED_EDGE ( 'NONE', *, *, #87, .F. ) ;
#110 = SURFACE_STYLE_FILL_AREA ( #169 ) ;
#111 = VECTOR ( 'NONE', #128, 1000.000000000000100 ) ;
#112 = SURFACE_SIDE_STYLE ('',( #110 ) ) ;
#113 = CARTESIAN_POINT ( 'NONE',  ( 0.0000000000000000000, -1.092200000000002900, -0.2184400000000065200 ) ) ;
#114 = DIRECTION ( 'NONE',  ( 0.0000000000000000000, 3.411302752418041800E-020, -1.000000000000000000 ) ) ;
#115 = CYLINDRICAL_SURFACE ( 'NONE', #106, 1.092200000000002900 ) ;
#116 = DIRECTION ( 'NONE',  ( -0.0000000000000000000, -3.411302752418041800E-020, 1.000000000000000000 ) ) ;
#117 = CARTESIAN_POINT ( 'NONE',  ( 1.337559234028746500E-016, 1.092200000000005800, -53.97499999999999400 ) ) ;
#118 = DIRECTION ( 'NONE',  ( -0.0000000000000000000, -3.411302752418041800E-020, 1.000000000000000000 ) ) ;
#119 = CIRCLE ( 'NONE', #185, 1.092200000000002900 ) ;
#120 = VERTEX_POINT ( 'NONE', #13 ) ;
#121 = CYLINDRICAL_SURFACE ( 'NONE', #155, 1.092200000000002900 ) ;
#122 = ADVANCED_FACE ( 'NONE', ( #150 ), #135, .T. ) ;
#123 = EDGE_CURVE ( 'NONE', #168, #61, #70, .T. ) ;
#124 =( LENGTH_UNIT ( ) NAMED_UNIT ( * ) SI_UNIT ( .MILLI., .METRE. ) );
#125 = EDGE_CURVE ( 'NONE', #120, #168, #201, .T. ) ;
#126 = AXIS2_PLACEMENT_3D ( 'NONE', #78, #144, #73 ) ;
#127 = SURFACE_SIDE_STYLE ('',( #104 ) ) ;
#128 = DIRECTION ( 'NONE',  ( 1.131426112287698500E-016, 0.9238795325112853000, 0.3826834323650930600 ) ) ;
#129 = DIRECTION ( 'NONE',  ( -0.0000000000000000000, -3.411302752418041800E-020, 1.000000000000000000 ) ) ;
#130 = DIRECTION ( 'NONE',  ( 0.0000000000000000000, 3.411302752418042400E-020, -1.000000000000000000 ) ) ;
#131 = CARTESIAN_POINT ( 'NONE',  ( 1.203803310625867700E-016, -0.8737600000000012000, 6.682952597817647100E-017 ) ) ;
#132 = AXIS2_PLACEMENT_3D ( 'NONE', #146, #32, #154 ) ;
#133 = VERTEX_POINT ( 'NONE', #212 ) ;
#134 = UNCERTAINTY_MEASURE_WITH_UNIT (LENGTH_MEASURE( 1.000000000000000100E-005 ), #40, 'distance_accuracy_value', 'NONE');
#135 = CONICAL_SURFACE ( 'NONE', #31, 2414.213562373070500, 1.178097245096168900 ) ;
#136 = EDGE_LOOP ( 'NONE', ( #184, #149, #97 ) ) ;
#137 = DIRECTION ( 'NONE',  ( 1.000000000000000000, 0.0000000000000000000, 0.0000000000000000000 ) ) ;
#138 =( NAMED_UNIT ( * ) PLANE_ANGLE_UNIT ( ) SI_UNIT ( $, .RADIAN. ) );
#139 =( NAMED_UNIT ( * ) PLANE_ANGLE_UNIT ( ) SI_UNIT ( $, .RADIAN. ) );
#140 = DIRECTION ( 'NONE',  ( 0.0000000000000000000, 1.000000000000000000, 0.0000000000000000000 ) ) ;
#141 = DIRECTION ( 'NONE',  ( -0.0000000000000000000, -3.411302752418041800E-020, 1.000000000000000000 ) ) ;
#142 =( NAMED_UNIT ( * ) SI_UNIT ( $, .STERADIAN. ) SOLID_ANGLE_UNIT ( ) );
#143 = AXIS2_PLACEMENT_3D ( 'NONE', #171, #27, #159 ) ;
#144 = DIRECTION ( 'NONE',  ( -0.0000000000000000000, -3.411302752418041800E-020, 1.000000000000000000 ) ) ;
#145 = FACE_OUTER_BOUND ( 'NONE', #210, .T. ) ;
#146 = CARTESIAN_POINT ( 'NONE',  ( 0.0000000000000000000, 1.841250660617637600E-018, -53.97499999999999400 ) ) ;
#147 = PRESENTATION_LAYER_ASSIGNMENT (  '', '', ( #153 ) ) ;
#148 = LINE ( 'NONE', #77, #68 ) ;
#149 = ORIENTED_EDGE ( 'NONE', *, *, #125, .T. ) ;
#150 = FACE_OUTER_BOUND ( 'NONE', #136, .T. ) ;
#151 = ADVANCED_FACE ( 'NONE', ( #17 ), #57, .F. ) ;
#152 = FACE_OUTER_BOUND ( 'NONE', #195, .T. ) ;
#153 = STYLED_ITEM ( 'NONE', ( #21 ), #211 ) ;
#154 = DIRECTION ( 'NONE',  ( 0.0000000000000000000, -1.000000000000000000, 0.0000000000000000000 ) ) ;
#155 = AXIS2_PLACEMENT_3D ( 'NONE', #42, #141, #41 ) ;
#156 = CARTESIAN_POINT ( 'NONE',  ( 0.0000000000000000000, -2.280774252451149400E-036, 6.685933257710600100E-017 ) ) ;
#157 = CARTESIAN_POINT ( 'NONE',  ( 1.337559234028743000E-016, 1.092200000000002900, 3.725824866190995400E-020 ) ) ;
#158 = CIRCLE ( 'NONE', #90, 0.8737600000000012000 ) ;
#159 = DIRECTION ( 'NONE',  ( 0.0000000000000000000, -1.000000000000000000, 0.0000000000000000000 ) ) ;
#160 = ORIENTED_EDGE ( 'NONE', *, *, #197, .T. ) ;
#161 = FACE_OUTER_BOUND ( 'NONE', #199, .T. ) ;
#162 = MECHANICAL_DESIGN_GEOMETRIC_PRESENTATION_REPRESENTATION (  '', ( #153 ), #167 ) ;
#163 = COLOUR_RGB ( '',0.7921568627450980000, 0.8196078431372548800, 0.9333333333333333500 ) ;
#164 = AXIS2_PLACEMENT_3D ( 'NONE', #50, #4, #100 ) ;
#165 = ADVANCED_FACE ( 'NONE', ( #145 ), #121, .T. ) ;
#166 = EDGE_CURVE ( 'NONE', #69, #133, #89, .T. ) ;
#167 =( GEOMETRIC_REPRESENTATION_CONTEXT ( 3 ) GLOBAL_UNCERTAINTY_ASSIGNED_CONTEXT ( ( #134 ) ) GLOBAL_UNIT_ASSIGNED_CONTEXT ( ( #40, #209, #142 ) ) REPRESENTATION_CONTEXT ( 'NONE', 'WORKASPACE' ) );
#168 = VERTEX_POINT ( 'NONE', #117 ) ;
#169 = FILL_AREA_STYLE ('',( #188 ) ) ;
#170 = CARTESIAN_POINT ( 'NONE',  ( 0.0000000000000000000, 0.8737600000000012000, 6.688913917603551900E-017 ) ) ;
#171 = CARTESIAN_POINT ( 'NONE',  ( 0.0000000000000000000, 1.841250660617637600E-018, -53.97499999999999400 ) ) ;
#172 = ORIENTED_EDGE ( 'NONE', *, *, #207, .T. ) ;
#173 = DIRECTION ( 'NONE',  ( 0.0000000000000000000, -1.000000000000000000, 0.0000000000000000000 ) ) ;
#174 = DIRECTION ( 'NONE',  ( 0.0000000000000000000, 3.411302752418042400E-020, -1.000000000000000000 ) ) ;
#175 =( LENGTH_UNIT ( ) NAMED_UNIT ( * ) SI_UNIT ( .MILLI., .METRE. ) );
#176 =( GEOMETRIC_REPRESENTATION_CONTEXT ( 3 ) GLOBAL_UNCERTAINTY_ASSIGNED_CONTEXT ( ( #96 ) ) GLOBAL_UNIT_ASSIGNED_CONTEXT ( ( #175, #139, #25 ) ) REPRESENTATION_CONTEXT ( 'NONE', 'WORKASPACE' ) );
#177 = CARTESIAN_POINT ( 'NONE',  ( 0.0000000000000000000, 0.8737600000000012000, 6.688913917603551900E-017 ) ) ;
#178 = ORIENTED_EDGE ( 'NONE', *, *, #87, .T. ) ;
#179 = PRODUCT ( '03-0327', '03-0327', '', ( #86 ) ) ;
#180 = ORIENTED_EDGE ( 'NONE', *, *, #56, .T. ) ;
#181 = VECTOR ( 'NONE', #58, 1000.000000000000000 ) ;
#182 = EDGE_CURVE ( 'NONE', #133, #186, #30, .T. ) ;
#183 = PRODUCT_DEFINITION_CONTEXT ( 'detailed design', #208, 'design' ) ;
#184 = ORIENTED_EDGE ( 'NONE', *, *, #207, .F. ) ;
#185 = AXIS2_PLACEMENT_3D ( 'NONE', #94, #174, #3 ) ;
#186 = VERTEX_POINT ( 'NONE', #113 ) ;
#187 = CIRCLE ( 'NONE', #164, 0.8737600000000012000 ) ;
#188 = FILL_AREA_STYLE_COLOUR ( '', #10 ) ;
#189 = PRODUCT_DEFINITION ( 'UNKNOWN', '', #7, #183 ) ;
#190 = STYLED_ITEM ( 'NONE', ( #63 ), #54 ) ;
#191 = CARTESIAN_POINT ( 'NONE',  ( 0.0000000000000000000, 0.0000000000000000000, 0.0000000000000000000 ) ) ;
#192 = DIRECTION ( 'NONE',  ( 0.0000000000000000000, -0.9238795325112853000, 0.3826834323650930600 ) ) ;
#193 =( GEOMETRIC_REPRESENTATION_CONTEXT ( 3 ) GLOBAL_UNCERTAINTY_ASSIGNED_CONTEXT ( ( #20 ) ) GLOBAL_UNIT_ASSIGNED_CONTEXT ( ( #124, #138, #88 ) ) REPRESENTATION_CONTEXT ( 'NONE', 'WORKASPACE' ) );
#194 = FILL_AREA_STYLE ('',( #91 ) ) ;
#195 = EDGE_LOOP ( 'NONE', ( #101, #109, #65, #18 ) ) ;
#196 = ORIENTED_EDGE ( 'NONE', *, *, #105, .F. ) ;
#197 = EDGE_CURVE ( 'NONE', #61, #168, #37, .T. ) ;
#198 = DIRECTION ( 'NONE',  ( 0.0000000000000000000, 1.000000000000000000, 3.411302752417592200E-020 ) ) ;
#199 = EDGE_LOOP ( 'NONE', ( #107, #172, #102 ) ) ;
#200 = EDGE_LOOP ( 'NONE', ( #66, #180, #75, #51 ) ) ;
#201 = LINE ( 'NONE', #60, #111 ) ;
#202 = PRODUCT_RELATED_PRODUCT_CATEGORY ( 'part', '', ( #179 ) ) ;
#203 = ORIENTED_EDGE ( 'NONE', *, *, #123, .T. ) ;
#204 = VECTOR ( 'NONE', #192, 1000.000000000000100 ) ;
#205 = APPLICATION_PROTOCOL_DEFINITION ( 'draft international standard', 'automotive_design', 1998, #85 ) ;
#206 = AXIS2_PLACEMENT_3D ( 'NONE', #156, #130, #198 ) ;
#207 = EDGE_CURVE ( 'NONE', #120, #61, #34, .T. ) ;
#208 = APPLICATION_CONTEXT ( 'automotive_design' ) ;
#209 =( NAMED_UNIT ( * ) PLANE_ANGLE_UNIT ( ) SI_UNIT ( $, .RADIAN. ) );
#210 = EDGE_LOOP ( 'NONE', ( #160, #36, #5, #55 ) ) ;
#211 = MANIFOLD_SOLID_BREP ( '¸ðµû±â1', #83 ) ;
#212 = CARTESIAN_POINT ( 'NONE',  ( 1.337559234028743000E-016, 1.092200000000002900, -0.2184400000000065200 ) ) ;
#213 = CONICAL_SURFACE ( 'NONE', #126, 2414.213562373070500, 1.178097245096168900 ) ;
#214 = DIRECTION ( 'NONE',  ( 0.0000000000000000000, -1.000000000000000000, -3.411302752418041800E-020 ) ) ;
ENDSEC;
END-ISO-10303-21;
